  0
SECTION
  2
HEADER
  9
$ACADVER
  1
AC1012
  9
$DWGCODEPAGE
  3
ansi_1252
  9
$INSBASE
 10
0.0
 20
0.0
 30
0.0
  9
$EXTMIN
 10
-294.7159
 20
-192.6567
 30
0.0
  9
$EXTMAX
 10
127.2028
 20
186.6985
 30
0.0
  9
$LIMMIN
 10
0.0
 20
0.0
  9
$LIMMAX
 10
12.0
 20
9.0
  9
$ORTHOMODE
 70
     0
  9
$REGENMODE
 70
     1
  9
$FILLMODE
 70
     1
  9
$QTEXTMODE
 70
     0
  9
$MIRRTEXT
 70
     1
  9
$DRAGMODE
 70
     2
  9
$LTSCALE
 40
1.0
  9
$OSMODE
 70
    37
  9
$ATTMODE
 70
     1
  9
$TEXTSIZE
 40
0.2
  9
$TRACEWID
 40
0.05
  9
$TEXTSTYLE
  7
STANDARD
  9
$CLAYER
  8
0
  9
$CELTYPE
  6
BYLAYER
  9
$CECOLOR
 62
   256
  9
$CELTSCALE
 40
1.0
  9
$DELOBJ
 70
     1
  9
$DISPSILH
 70
     0
  9
$DIMSCALE
 40
1.0
  9
$DIMASZ
 40
0.18
  9
$DIMEXO
 40
0.0625
  9
$DIMDLI
 40
0.38
  9
$DIMRND
 40
0.0
  9
$DIMDLE
 40
0.0
  9
$DIMEXE
 40
0.18
  9
$DIMTP
 40
0.0
  9
$DIMTM
 40
0.0
  9
$DIMTXT
 40
0.18
  9
$DIMCEN
 40
0.09
  9
$DIMTSZ
 40
0.0
  9
$DIMTOL
 70
     0
  9
$DIMLIM
 70
     0
  9
$DIMTIH
 70
     1
  9
$DIMTOH
 70
     1
  9
$DIMSE1
 70
     0
  9
$DIMSE2
 70
     0
  9
$DIMTAD
 70
     0
  9
$DIMZIN
 70
     0
  9
$DIMBLK
  1

  9
$DIMASO
 70
     1
  9
$DIMSHO
 70
     1
  9
$DIMPOST
  1

  9
$DIMAPOST
  1

  9
$DIMALT
 70
     0
  9
$DIMALTD
 70
     2
  9
$DIMALTF
 40
25.4
  9
$DIMLFAC
 40
1.0
  9
$DIMTOFL
 70
     0
  9
$DIMTVP
 40
0.0
  9
$DIMTIX
 70
     0
  9
$DIMSOXD
 70
     0
  9
$DIMSAH
 70
     0
  9
$DIMBLK1
  1

  9
$DIMBLK2
  1

  9
$DIMSTYLE
  2
STANDARD
  9
$DIMCLRD
 70
     0
  9
$DIMCLRE
 70
     0
  9
$DIMCLRT
 70
     0
  9
$DIMTFAC
 40
1.0
  9
$DIMGAP
 40
0.09
  9
$DIMJUST
 70
     0
  9
$DIMSD1
 70
     0
  9
$DIMSD2
 70
     0
  9
$DIMTOLJ
 70
     1
  9
$DIMTZIN
 70
     0
  9
$DIMALTZ
 70
     0
  9
$DIMALTTZ
 70
     0
  9
$DIMFIT
 70
     3
  9
$DIMUPT
 70
     0
  9
$DIMUNIT
 70
     2
  9
$DIMDEC
 70
     4
  9
$DIMTDEC
 70
     4
  9
$DIMALTU
 70
     2
  9
$DIMALTTD
 70
     2
  9
$DIMTXSTY
  7
STANDARD
  9
$DIMAUNIT
 70
     0
  9
$LUNITS
 70
     2
  9
$LUPREC
 70
     4
  9
$SKETCHINC
 40
0.1
  9
$FILLETRAD
 40
0.5
  9
$AUNITS
 70
     0
  9
$AUPREC
 70
     0
  9
$MENU
  1
.
  9
$ELEVATION
 40
0.0
  9
$PELEVATION
 40
0.0
  9
$THICKNESS
 40
0.0
  9
$LIMCHECK
 70
     0
  9
$CHAMFERA
 40
0.5
  9
$CHAMFERB
 40
0.5
  9
$CHAMFERC
 40
1.0
  9
$CHAMFERD
 40
0.0
  9
$SKPOLY
 70
     0
  9
$TDCREATE
 40
2460680.692495232
  9
$TDUPDATE
 40
2460680.692495243
  9
$TDINDWG
 40
0.0000000116
  9
$TDUSRTIMER
 40
0.0000000116
  9
$USRTIMER
 70
     1
  9
$ANGBASE
 50
0.0
  9
$ANGDIR
 70
     0
  9
$PDMODE
 70
     0
  9
$PDSIZE
 40
0.0
  9
$PLINEWID
 40
0.0
  9
$COORDS
 70
     1
  9
$SPLFRAME
 70
     0
  9
$SPLINETYPE
 70
     6
  9
$SPLINESEGS
 70
     8
  9
$ATTDIA
 70
     0
  9
$ATTREQ
 70
     1
  9
$HANDLING
 70
     1
  9
$HANDSEED
  5
6E
  9
$SURFTAB1
 70
     6
  9
$SURFTAB2
 70
     6
  9
$SURFTYPE
 70
     6
  9
$SURFU
 70
     6
  9
$SURFV
 70
     6
  9
$UCSNAME
  2

  9
$UCSORG
 10
0.0
 20
0.0
 30
0.0
  9
$UCSXDIR
 10
1.0
 20
0.0
 30
0.0
  9
$UCSYDIR
 10
0.0
 20
1.0
 30
0.0
  9
$PUCSNAME
  2

  9
$PUCSORG
 10
0.0
 20
0.0
 30
0.0
  9
$PUCSXDIR
 10
1.0
 20
0.0
 30
0.0
  9
$PUCSYDIR
 10
0.0
 20
1.0
 30
0.0
  9
$USERI1
 70
     0
  9
$USERI2
 70
     0
  9
$USERI3
 70
     0
  9
$USERI4
 70
     0
  9
$USERI5
 70
     0
  9
$USERR1
 40
0.0
  9
$USERR2
 40
0.0
  9
$USERR3
 40
0.0
  9
$USERR4
 40
0.0
  9
$USERR5
 40
0.0
  9
$WORLDVIEW
 70
     1
  9
$SHADEDGE
 70
     3
  9
$SHADEDIF
 70
    70
  9
$TILEMODE
 70
     1
  9
$MAXACTVP
 70
    64
  9
$PINSBASE
 10
0.0
 20
0.0
 30
0.0
  9
$PLIMCHECK
 70
     0
  9
$PEXTMIN
 10
1.000000000000000E+20
 20
1.000000000000000E+20
 30
1.000000000000000E+20
  9
$PEXTMAX
 10
-1.000000000000000E+20
 20
-1.000000000000000E+20
 30
-1.000000000000000E+20
  9
$PLIMMIN
 10
0.0
 20
0.0
  9
$PLIMMAX
 10
12.0
 20
9.0
  9
$UNITMODE
 70
     0
  9
$VISRETAIN
 70
     1
  9
$PLINEGEN
 70
     0
  9
$PSLTSCALE
 70
     1
  9
$TREEDEPTH
 70
  3020
  9
$PICKSTYLE
 70
     1
  9
$CMLSTYLE
  2
STANDARD
  9
$CMLJUST
 70
     0
  9
$CMLSCALE
 40
1.0
  9
$SAVEIMAGES
 70
     1
  0
ENDSEC
  0
SECTION
  2
CLASSES
  0
CLASS
  1
ACDBDICTIONARYWDFLT
  2
AcDbDictionaryWithDefault
  3
ObjectDBX Classes
 90
        0
280
     0
281
     0
  0
CLASS
  1
XRECORD
  2
AcDbXrecord
  3
AutoCAD 2000
 90
    32768
280
     0
281
     0
  0
CLASS
  1
LWPOLYLINE
  2
AcDbPolyline
  3
AutoCAD 2000
 90
    32768
280
     0
281
     1
  0
CLASS
  1
HATCH
  2
AcDbHatch
  3
AutoCAD 2000
 90
    32768
280
     0
281
     1
  0
CLASS
  1
ACDBPLACEHOLDER
  2
AcDbPlaceHolder
  3
ObjectDBX Classes
 90
        0
280
     0
281
     0
  0
CLASS
  1
LAYOUT
  2
AcDbLayout
  3
ObjectDBX Classes
 90
        0
280
     0
281
     0
  0
ENDSEC
  0
SECTION
  2
TABLES
  0
TABLE
  2
VPORT
  5
8
330
0
100
AcDbSymbolTable
 70
     2
  0
VPORT
  5
29
102
{ACAD_XDICTIONARY
360
6C
102
}
330
8
100
AcDbSymbolTableRecord
100
AcDbViewportTableRecord
  2
*ACTIVE
 70
     0
 10
0.0
 20
0.0
 11
1.0
 21
1.0
 12
10.42990654205607
 22
4.5
 13
0.0
 23
0.0
 14
0.5
 24
0.5
 15
0.5
 25
0.5
 16
0.0
 26
0.0
 36
1.0
 17
0.0
 27
0.0
 37
0.0
 40
9.0
 41
1.972972972850329
 42
50.0
 43
0.0
 44
0.0
 50
0.0
 51
0.0
 71
     0
 72
   100
 73
     1
 74
     3
 75
     0
 76
     0
 77
     0
 78
     0
  0
ENDTAB
  0
TABLE
  2
LTYPE
  5
5
330
0
100
AcDbSymbolTable
 70
     1
  0
LTYPE
  5
14
330
5
100
AcDbSymbolTableRecord
100
AcDbLinetypeTableRecord
  2
BYBLOCK
 70
     0
  3

 72
    65
 73
     0
 40
0.0
  0
LTYPE
  5
15
330
5
100
AcDbSymbolTableRecord
100
AcDbLinetypeTableRecord
  2
BYLAYER
 70
     0
  3

 72
    65
 73
     0
 40
0.0
  0
LTYPE
  5
16
330
5
100
AcDbSymbolTableRecord
100
AcDbLinetypeTableRecord
  2
CONTINUOUS
 70
     0
  3
Solid line
 72
    65
 73
     0
 40
0.0
  0
ENDTAB
  0
TABLE
  2
LAYER
  5
2
330
0
100
AcDbSymbolTable
 70
     2
  0
LAYER
  5
10
330
2
100
AcDbSymbolTableRecord
100
AcDbLayerTableRecord
  2
0
 70
     0
 62
     7
  6
CONTINUOUS
  0
LAYER
  5
2B
330
2
100
AcDbSymbolTableRecord
100
AcDbLayerTableRecord
  2
EBENE_1
 70
     0
 62
     7
  6
CONTINUOUS
  0
ENDTAB
  0
TABLE
  2
STYLE
  5
3
330
0
100
AcDbSymbolTable
 70
     1
  0
STYLE
  5
11
330
3
100
AcDbSymbolTableRecord
100
AcDbTextStyleTableRecord
  2
STANDARD
 70
     0
 40
0.0
 41
1.0
 50
0.0
 71
     0
 42
0.2
  3
txt
  4

  0
ENDTAB
  0
TABLE
  2
VIEW
  5
6
330
0
100
AcDbSymbolTable
 70
     0
  0
ENDTAB
  0
TABLE
  2
UCS
  5
7
330
0
100
AcDbSymbolTable
 70
     0
  0
ENDTAB
  0
TABLE
  2
APPID
  5
9
330
0
100
AcDbSymbolTable
 70
     2
  0
APPID
  5
12
330
9
100
AcDbSymbolTableRecord
100
AcDbRegAppTableRecord
  2
ACAD
 70
     0
  0
APPID
  5
2A
330
9
100
AcDbSymbolTableRecord
100
AcDbRegAppTableRecord
  2
ODA
 70
     0
  0
ENDTAB
  0
TABLE
  2
DIMSTYLE
  5
A
330
0
100
AcDbSymbolTable
 70
     1
  0
DIMSTYLE
105
27
330
A
100
AcDbSymbolTableRecord
100
AcDbDimStyleTableRecord
  2
STANDARD
 70
     0
  3

  4

  5

  6

  7

 40
1.0
 41
0.18
 42
0.0625
 43
0.38
 44
0.18
 45
0.0
 46
0.0
 47
0.0
 48
0.0
140
0.18
141
0.09
142
0.0
143
25.4
144
1.0
145
0.0
146
1.0
147
0.09
 71
     0
 72
     0
 73
     1
 74
     1
 75
     0
 76
     0
 77
     0
 78
     0
170
     0
171
     2
172
     0
173
     0
174
     0
175
     0
176
     0
177
     0
178
     0
270
     2
271
     4
272
     4
273
     2
274
     2
340
11
275
     0
280
     0
281
     0
282
     0
283
     1
284
     0
285
     0
286
     0
287
     3
288
     0
  0
ENDTAB
  0
TABLE
  2
BLOCK_RECORD
  5
1
330
0
100
AcDbSymbolTable
 70
     1
  0
BLOCK_RECORD
  5
1F
330
1
100
AcDbSymbolTableRecord
100
AcDbBlockTableRecord
  2
*MODEL_SPACE
  0
BLOCK_RECORD
  5
1B
330
1
100
AcDbSymbolTableRecord
100
AcDbBlockTableRecord
  2
*PAPER_SPACE
  0
ENDTAB
  0
ENDSEC
  0
SECTION
  2
BLOCKS
  0
BLOCK
  5
20
330
1F
100
AcDbEntity
  8
0
100
AcDbBlockBegin
  2
*MODEL_SPACE
 70
     0
 71
     0
 10
0.0
 20
0.0
 30
0.0
  3
*MODEL_SPACE
  1

  0
ENDBLK
  5
21
330
1F
100
AcDbEntity
  8
0
100
AcDbBlockEnd
  0
BLOCK
  5
1C
330
1B
100
AcDbEntity
 67
     1
  8
0
100
AcDbBlockBegin
  2
*PAPER_SPACE
 70
     0
 71
     0
 10
0.0
 20
0.0
 30
0.0
  3
*PAPER_SPACE
  1

  0
ENDBLK
  5
1D
330
1B
100
AcDbEntity
 67
     1
  8
0
100
AcDbBlockEnd
  0
ENDSEC
  0
SECTION
  2
ENTITIES
  0
SPLINE
  5
2C
330
1F
100
AcDbEntity
  8
EBENE_1
100
AcDbSpline
210
0.0
220
0.0
230
1.0
 70
    11
 71
     3
 72
    36
 73
    32
 74
     0
 42
0.0000000001
 43
0.0000000001
 40
0.0
 40
0.0
 40
0.0
 40
0.0
 40
0.125
 40
0.125
 40
0.125
 40
0.125
 40
0.25
 40
0.25
 40
0.25
 40
0.25
 40
0.375
 40
0.375
 40
0.375
 40
0.375
 40
0.5
 40
0.5
 40
0.5
 40
0.5
 40
0.625
 40
0.625
 40
0.625
 40
0.625
 40
0.75
 40
0.75
 40
0.75
 40
0.75
 40
0.875
 40
0.875
 40
0.875
 40
0.875
 40
1.0
 40
1.0
 40
1.0
 40
1.0
 10
-231.9848
 20
-11.471
 30
0.0
 10
-231.9848
 20
-11.471
 30
0.0
 10
-254.5072
 20
-11.471
 30
0.0
 10
-254.5072
 20
-11.471
 30
0.0
 10
-254.5072
 20
-11.471
 30
0.0
 10
-255.825
 20
-11.471
 30
0.0
 10
-256.9032
 20
-12.5492
 30
0.0
 10
-256.9032
 20
-13.867
 30
0.0
 10
-256.9032
 20
-13.867
 30
0.0
 10
-256.9032
 20
-13.867
 30
0.0
 10
-256.9032
 20
-38.7854
 30
0.0
 10
-256.9032
 20
-38.7854
 30
0.0
 10
-256.9032
 20
-38.7854
 30
0.0
 10
-256.9032
 20
-40.1032
 30
0.0
 10
-255.825
 20
-41.1814
 30
0.0
 10
-254.5072
 20
-41.1814
 30
0.0
 10
-254.5072
 20
-41.1814
 30
0.0
 10
-254.5072
 20
-41.1814
 30
0.0
 10
-231.9848
 20
-41.1814
 30
0.0
 10
-231.9848
 20
-41.1814
 30
0.0
 10
-231.9848
 20
-41.1814
 30
0.0
 10
-230.667
 20
-41.1814
 30
0.0
 10
-229.5888
 20
-40.1032
 30
0.0
 10
-229.5888
 20
-38.7854
 30
0.0
 10
-229.5888
 20
-38.7854
 30
0.0
 10
-229.5888
 20
-38.7854
 30
0.0
 10
-229.5888
 20
-13.867
 30
0.0
 10
-229.5888
 20
-13.867
 30
0.0
 10
-229.5888
 20
-13.867
 30
0.0
 10
-229.5888
 20
-12.5492
 30
0.0
 10
-230.667
 20
-11.471
 30
0.0
 10
-231.9848
 20
-11.471
 30
0.0
  0
SPLINE
  5
2D
330
1F
100
AcDbEntity
  8
EBENE_1
100
AcDbSpline
210
0.0
220
0.0
230
1.0
 70
    11
 71
     3
 72
    36
 73
    32
 74
     0
 42
0.0000000001
 43
0.0000000001
 40
0.0
 40
0.0
 40
0.0
 40
0.0
 40
0.125
 40
0.125
 40
0.125
 40
0.125
 40
0.25
 40
0.25
 40
0.25
 40
0.25
 40
0.375
 40
0.375
 40
0.375
 40
0.375
 40
0.5
 40
0.5
 40
0.5
 40
0.5
 40
0.625
 40
0.625
 40
0.625
 40
0.625
 40
0.75
 40
0.75
 40
0.75
 40
0.75
 40
0.875
 40
0.875
 40
0.875
 40
0.875
 40
1.0
 40
1.0
 40
1.0
 40
1.0
 10
-198.4408
 20
-11.471
 30
0.0
 10
-198.4408
 20
-11.471
 30
0.0
 10
-220.9632
 20
-11.471
 30
0.0
 10
-220.9632
 20
-11.471
 30
0.0
 10
-220.9632
 20
-11.471
 30
0.0
 10
-222.281
 20
-11.471
 30
0.0
 10
-223.3592
 20
-12.5492
 30
0.0
 10
-223.3592
 20
-13.867
 30
0.0
 10
-223.3592
 20
-13.867
 30
0.0
 10
-223.3592
 20
-13.867
 30
0.0
 10
-223.3592
 20
-38.7854
 30
0.0
 10
-223.3592
 20
-38.7854
 30
0.0
 10
-223.3592
 20
-38.7854
 30
0.0
 10
-223.3592
 20
-40.1032
 30
0.0
 10
-222.281
 20
-41.1814
 30
0.0
 10
-220.9632
 20
-41.1814
 30
0.0
 10
-220.9632
 20
-41.1814
 30
0.0
 10
-220.9632
 20
-41.1814
 30
0.0
 10
-198.4408
 20
-41.1814
 30
0.0
 10
-198.4408
 20
-41.1814
 30
0.0
 10
-198.4408
 20
-41.1814
 30
0.0
 10
-197.123
 20
-41.1814
 30
0.0
 10
-196.0448
 20
-40.1032
 30
0.0
 10
-196.0448
 20
-38.7854
 30
0.0
 10
-196.0448
 20
-38.7854
 30
0.0
 10
-196.0448
 20
-38.7854
 30
0.0
 10
-196.0448
 20
-13.867
 30
0.0
 10
-196.0448
 20
-13.867
 30
0.0
 10
-196.0448
 20
-13.867
 30
0.0
 10
-196.0448
 20
-12.5492
 30
0.0
 10
-197.123
 20
-11.471
 30
0.0
 10
-198.4408
 20
-11.471
 30
0.0
  0
SPLINE
  5
2E
330
1F
100
AcDbEntity
  8
EBENE_1
100
AcDbSpline
210
0.0
220
0.0
230
1.0
 70
    11
 71
     3
 72
   124
 73
   120
 74
     0
 42
0.0000000001
 43
0.0000000001
 40
0.0
 40
0.0
 40
0.0
 40
0.0
 40
0.0333333333333333
 40
0.0333333333333333
 40
0.0333333333333333
 40
0.0333333333333333
 40
0.0666666666666667
 40
0.0666666666666667
 40
0.0666666666666667
 40
0.0666666666666667
 40
0.1
 40
0.1
 40
0.1
 40
0.1
 40
0.1333333333333333
 40
0.1333333333333333
 40
0.1333333333333333
 40
0.1333333333333333
 40
0.1666666666666667
 40
0.1666666666666667
 40
0.1666666666666667
 40
0.1666666666666667
 40
0.2
 40
0.2
 40
0.2
 40
0.2
 40
0.2333333333333333
 40
0.2333333333333333
 40
0.2333333333333333
 40
0.2333333333333333
 40
0.2666666666666667
 40
0.2666666666666667
 40
0.2666666666666667
 40
0.2666666666666667
 40
0.3
 40
0.3
 40
0.3
 40
0.3
 40
0.3333333333333333
 40
0.3333333333333333
 40
0.3333333333333333
 40
0.3333333333333333
 40
0.3666666666666666
 40
0.3666666666666666
 40
0.3666666666666666
 40
0.3666666666666666
 40
0.4
 40
0.4
 40
0.4
 40
0.4
 40
0.4333333333333333
 40
0.4333333333333333
 40
0.4333333333333333
 40
0.4333333333333333
 40
0.4666666666666666
 40
0.4666666666666666
 40
0.4666666666666666
 40
0.4666666666666666
 40
0.4999999999999999
 40
0.4999999999999999
 40
0.4999999999999999
 40
0.4999999999999999
 40
0.5333333333333333
 40
0.5333333333333333
 40
0.5333333333333333
 40
0.5333333333333333
 40
0.5666666666666667
 40
0.5666666666666667
 40
0.5666666666666667
 40
0.5666666666666667
 40
0.6
 40
0.6
 40
0.6
 40
0.6
 40
0.6333333333333333
 40
0.6333333333333333
 40
0.6333333333333333
 40
0.6333333333333333
 40
0.6666666666666666
 40
0.6666666666666666
 40
0.6666666666666666
 40
0.6666666666666666
 40
0.7
 40
0.7
 40
0.7
 40
0.7
 40
0.7333333333333333
 40
0.7333333333333333
 40
0.7333333333333333
 40
0.7333333333333333
 40
0.7666666666666666
 40
0.7666666666666666
 40
0.7666666666666666
 40
0.7666666666666666
 40
0.7999999999999999
 40
0.7999999999999999
 40
0.7999999999999999
 40
0.7999999999999999
 40
0.8333333333333333
 40
0.8333333333333333
 40
0.8333333333333333
 40
0.8333333333333333
 40
0.8666666666666666
 40
0.8666666666666666
 40
0.8666666666666666
 40
0.8666666666666666
 40
0.8999999999999999
 40
0.8999999999999999
 40
0.8999999999999999
 40
0.8999999999999999
 40
0.9333333333333332
 40
0.9333333333333332
 40
0.9333333333333332
 40
0.9333333333333332
 40
0.9666666666666666
 40
0.9666666666666666
 40
0.9666666666666666
 40
0.9666666666666666
 40
1.0
 40
1.0
 40
1.0
 40
1.0
 10
-182.9703
 20
-91.01360000000001
 30
0.0
 10
-186.5843
 20
-91.01360000000001
 30
0.0
 10
-190.191
 20
-91.01360000000001
 30
0.0
 10
-193.7915
 20
-91.01360000000001
 30
0.0
 10
-193.7915
 20
-91.01360000000001
 30
0.0
 10
-193.7915
 20
-91.01360000000001
 30
0.0
 10
-193.7915
 20
-94.85600000000001
 30
0.0
 10
-193.7915
 20
-94.85600000000001
 30
0.0
 10
-193.7915
 20
-94.85600000000001
 30
0.0
 10
-193.7915
 20
-94.85600000000001
 30
0.0
 10
-208.7915
 20
-94.85600000000001
 30
0.0
 10
-208.7915
 20
-94.85600000000001
 30
0.0
 10
-208.7915
 20
-94.85600000000001
 30
0.0
 10
-208.7915
 20
-94.85600000000001
 30
0.0
 10
-208.7915
 20
-91.01360000000001
 30
0.0
 10
-208.7915
 20
-91.01360000000001
 30
0.0
 10
-208.7915
 20
-91.01360000000001
 30
0.0
 10
-224.4282
 20
-91.01360000000001
 30
0.0
 10
-239.9602
 20
-91.01360000000001
 30
0.0
 10
-255.4419
 20
-91.01360000000001
 30
0.0
 10
-255.4419
 20
-91.01360000000001
 30
0.0
 10
-255.4419
 20
-91.01360000000001
 30
0.0
 10
-255.4419
 20
-94.85600000000001
 30
0.0
 10
-255.4419
 20
-94.85600000000001
 30
0.0
 10
-255.4419
 20
-94.85600000000001
 30
0.0
 10
-255.4419
 20
-94.85600000000001
 30
0.0
 10
-270.4419
 20
-94.85600000000001
 30
0.0
 10
-270.4419
 20
-94.85600000000001
 30
0.0
 10
-270.4419
 20
-94.85600000000001
 30
0.0
 10
-270.4419
 20
-94.85600000000001
 30
0.0
 10
-270.4419
 20
-91.01360000000001
 30
0.0
 10
-270.4419
 20
-91.01360000000001
 30
0.0
 10
-270.4419
 20
-91.01360000000001
 30
0.0
 10
-278.4984
 20
-91.01360000000001
 30
0.0
 10
-286.5463
 20
-91.01360000000001
 30
0.0
 10
-294.5931
 20
-91.01360000000001
 30
0.0
 10
-294.5931
 20
-91.01360000000001
 30
0.0
 10
-280.2412
 20
-48.7351
 30
0.0
 10
-267.737
 20
-16.9745
 30
0.0
 10
-294.5931
 20
1.4061
 30
0.0
 10
-294.5931
 20
1.4061
 30
0.0
 10
-286.7838
 20
1.4061
 30
0.0
 10
-278.7165
 20
1.4061
 30
0.0
 10
-270.4419
 20
1.4061
 30
0.0
 10
-270.4419
 20
1.4061
 30
0.0
 10
-270.4419
 20
1.4061
 30
0.0
 10
-270.4419
 20
5.282
 30
0.0
 10
-270.4419
 20
5.282
 30
0.0
 10
-270.4419
 20
5.282
 30
0.0
 10
-270.4419
 20
5.282
 30
0.0
 10
-255.4419
 20
5.282
 30
0.0
 10
-255.4419
 20
5.282
 30
0.0
 10
-255.4419
 20
5.282
 30
0.0
 10
-255.4419
 20
5.282
 30
0.0
 10
-255.4419
 20
1.4061
 30
0.0
 10
-255.4419
 20
1.4061
 30
0.0
 10
-255.4419
 20
1.4061
 30
0.0
 10
-240.3624
 20
1.4061
 30
0.0
 10
-224.7208
 20
1.4061
 30
0.0
 10
-208.7915
 20
1.4061
 30
0.0
 10
-208.7915
 20
1.4061
 30
0.0
 10
-208.7915
 20
1.4061
 30
0.0
 10
-208.7915
 20
5.282
 30
0.0
 10
-208.7915
 20
5.282
 30
0.0
 10
-208.7915
 20
5.282
 30
0.0
 10
-208.7915
 20
5.282
 30
0.0
 10
-193.7915
 20
5.282
 30
0.0
 10
-193.7915
 20
5.282
 30
0.0
 10
-193.7915
 20
5.282
 30
0.0
 10
-193.7915
 20
5.282
 30
0.0
 10
-193.7915
 20
1.4061
 30
0.0
 10
-193.7915
 20
1.4061
 30
0.0
 10
-193.7915
 20
1.4061
 30
0.0
 10
-190.1935
 20
1.4061
 30
0.0
 10
-186.5856
 20
1.4061
 30
0.0
 10
-182.9703
 20
1.4061
 30
0.0
 10
-182.9703
 20
1.4061
 30
0.0
 10
-182.9703
 20
1.4061
 30
0.0
 10
-181.9075
 20
-6.6775
 30
0.0
 10
-181.9075
 20
-6.6775
 30
0.0
 10
-181.9075
 20
-6.6775
 30
0.0
 10
-181.9075
 20
-6.6775
 30
0.0
 10
-185.7036
 20
-7.173200000000001
 30
0.0
 10
-185.7036
 20
-7.173200000000001
 30
0.0
 10
-185.7036
 20
-7.173200000000001
 30
0.0
 10
-185.7036
 20
-7.173200000000001
 30
0.0
 10
-184.5817
 20
-15.9189
 30
0.0
 10
-184.5817
 20
-15.9189
 30
0.0
 10
-184.5817
 20
-15.9189
 30
0.0
 10
-184.5817
 20
-15.9189
 30
0.0
 10
-180.7581
 20
-15.4195
 30
0.0
 10
-180.7581
 20
-15.4195
 30
0.0
 10
-180.7581
 20
-15.4195
 30
0.0
 10
-180.7581
 20
-15.4195
 30
0.0
 10
-173.5011
 20
-70.6152
 30
0.0
 10
-173.5011
 20
-70.6152
 30
0.0
 10
-173.5011
 20
-70.6152
 30
0.0
 10
-173.5011
 20
-70.6152
 30
0.0
 10
-177.3106
 20
-71.1126
 30
0.0
 10
-177.3106
 20
-71.1126
 30
0.0
 10
-177.3106
 20
-71.1126
 30
0.0
 10
-177.3106
 20
-71.1126
 30
0.0
 10
-176.1887
 20
-79.8583
 30
0.0
 10
-176.1887
 20
-79.8583
 30
0.0
 10
-176.1887
 20
-79.8583
 30
0.0
 10
-176.1887
 20
-79.8583
 30
0.0
 10
-172.3517
 20
-79.35720000000001
 30
0.0
 10
-172.3517
 20
-79.35720000000001
 30
0.0
 10
-172.3517
 20
-79.35720000000001
 30
0.0
 10
-172.3517
 20
-79.35720000000001
 30
0.0
 10
-170.8436
 20
-90.8275
 30
0.0
 10
-170.8436
 20
-90.8275
 30
0.0
 10
-170.8436
 20
-90.8275
 30
0.0
 10
-170.8436
 20
-90.8275
 30
0.0
 10
-182.9703
 20
-90.8274
 30
0.0
 10
-182.9703
 20
-90.8274
 30
0.0
 10
-182.9703
 20
-90.8274
 30
0.0
 10
-182.9703
 20
-90.8274
 30
0.0
 10
-182.9703
 20
-91.01360000000001
 30
0.0
 10
-182.9703
 20
-91.01360000000001
 30
0.0
  0
SPLINE
  5
2F
330
1F
100
AcDbEntity
  8
EBENE_1
100
AcDbSpline
210
0.0
220
0.0
230
1.0
 70
    11
 71
     3
 72
    36
 73
    32
 74
     0
 42
0.0000000001
 43
0.0000000001
 40
0.0
 40
0.0
 40
0.0
 40
0.0
 40
0.125
 40
0.125
 40
0.125
 40
0.125
 40
0.25
 40
0.25
 40
0.25
 40
0.25
 40
0.375
 40
0.375
 40
0.375
 40
0.375
 40
0.5
 40
0.5
 40
0.5
 40
0.5
 40
0.625
 40
0.625
 40
0.625
 40
0.625
 40
0.75
 40
0.75
 40
0.75
 40
0.75
 40
0.875
 40
0.875
 40
0.875
 40
0.875
 40
1.0
 40
1.0
 40
1.0
 40
1.0
 10
-119.0927
 20
-77.51170000000001
 30
0.0
 10
-119.0927
 20
-77.51170000000001
 30
0.0
 10
-96.5703
 20
-77.51170000000001
 30
0.0
 10
-96.5703
 20
-77.51170000000001
 30
0.0
 10
-96.5703
 20
-77.51170000000001
 30
0.0
 10
-95.2525
 20
-77.51170000000001
 30
0.0
 10
-94.1743
 20
-76.43350000000001
 30
0.0
 10
-94.1743
 20
-75.1157
 30
0.0
 10
-94.1743
 20
-75.1157
 30
0.0
 10
-94.1743
 20
-75.1157
 30
0.0
 10
-94.1743
 20
-50.19730000000001
 30
0.0
 10
-94.1743
 20
-50.19730000000001
 30
0.0
 10
-94.1743
 20
-50.19730000000001
 30
0.0
 10
-94.1743
 20
-48.8795
 30
0.0
 10
-95.2525
 20
-47.80130000000001
 30
0.0
 10
-96.5703
 20
-47.80130000000001
 30
0.0
 10
-96.5703
 20
-47.80130000000001
 30
0.0
 10
-96.5703
 20
-47.80130000000001
 30
0.0
 10
-119.0927
 20
-47.80130000000001
 30
0.0
 10
-119.0927
 20
-47.80130000000001
 30
0.0
 10
-119.0927
 20
-47.80130000000001
 30
0.0
 10
-120.4105
 20
-47.80130000000001
 30
0.0
 10
-121.4887
 20
-48.8795
 30
0.0
 10
-121.4887
 20
-50.19730000000001
 30
0.0
 10
-121.4887
 20
-50.19730000000001
 30
0.0
 10
-121.4887
 20
-50.19730000000001
 30
0.0
 10
-121.4887
 20
-75.1157
 30
0.0
 10
-121.4887
 20
-75.1157
 30
0.0
 10
-121.4887
 20
-75.1157
 30
0.0
 10
-121.4887
 20
-76.43350000000001
 30
0.0
 10
-120.4105
 20
-77.51170000000001
 30
0.0
 10
-119.0927
 20
-77.51170000000001
 30
0.0
  0
SPLINE
  5
30
330
1F
100
AcDbEntity
  8
EBENE_1
100
AcDbSpline
210
0.0
220
0.0
230
1.0
 70
    11
 71
     3
 72
    36
 73
    32
 74
     0
 42
0.0000000001
 43
0.0000000001
 40
0.0
 40
0.0
 40
0.0
 40
0.0
 40
0.125
 40
0.125
 40
0.125
 40
0.125
 40
0.25
 40
0.25
 40
0.25
 40
0.25
 40
0.375
 40
0.375
 40
0.375
 40
0.375
 40
0.5
 40
0.5
 40
0.5
 40
0.5
 40
0.625
 40
0.625
 40
0.625
 40
0.625
 40
0.75
 40
0.75
 40
0.75
 40
0.75
 40
0.875
 40
0.875
 40
0.875
 40
0.875
 40
1.0
 40
1.0
 40
1.0
 40
1.0
 10
-152.6367
 20
-77.51170000000001
 30
0.0
 10
-152.6367
 20
-77.51170000000001
 30
0.0
 10
-130.1143
 20
-77.51170000000001
 30
0.0
 10
-130.1143
 20
-77.51170000000001
 30
0.0
 10
-130.1143
 20
-77.51170000000001
 30
0.0
 10
-128.7965
 20
-77.51170000000001
 30
0.0
 10
-127.7183
 20
-76.43350000000001
 30
0.0
 10
-127.7183
 20
-75.1157
 30
0.0
 10
-127.7183
 20
-75.1157
 30
0.0
 10
-127.7183
 20
-75.1157
 30
0.0
 10
-127.7183
 20
-50.19730000000001
 30
0.0
 10
-127.7183
 20
-50.19730000000001
 30
0.0
 10
-127.7183
 20
-50.19730000000001
 30
0.0
 10
-127.7183
 20
-48.8795
 30
0.0
 10
-128.7965
 20
-47.80130000000001
 30
0.0
 10
-130.1143
 20
-47.80130000000001
 30
0.0
 10
-130.1143
 20
-47.80130000000001
 30
0.0
 10
-130.1143
 20
-47.80130000000001
 30
0.0
 10
-152.6367
 20
-47.80130000000001
 30
0.0
 10
-152.6367
 20
-47.80130000000001
 30
0.0
 10
-152.6367
 20
-47.80130000000001
 30
0.0
 10
-153.9545
 20
-47.80130000000001
 30
0.0
 10
-155.0327
 20
-48.8795
 30
0.0
 10
-155.0327
 20
-50.19730000000001
 30
0.0
 10
-155.0327
 20
-50.19730000000001
 30
0.0
 10
-155.0327
 20
-50.19730000000001
 30
0.0
 10
-155.0327
 20
-75.1157
 30
0.0
 10
-155.0327
 20
-75.1157
 30
0.0
 10
-155.0327
 20
-75.1157
 30
0.0
 10
-155.0327
 20
-76.43350000000001
 30
0.0
 10
-153.9545
 20
-77.51170000000001
 30
0.0
 10
-152.6367
 20
-77.51170000000001
 30
0.0
  0
SPLINE
  5
31
330
1F
100
AcDbEntity
  8
EBENE_1
100
AcDbSpline
210
0.0
220
0.0
230
1.0
 70
    11
 71
     3
 72
   124
 73
   120
 74
     0
 42
0.0000000001
 43
0.0000000001
 40
0.0
 40
0.0
 40
0.0
 40
0.0
 40
0.0333333333333333
 40
0.0333333333333333
 40
0.0333333333333333
 40
0.0333333333333333
 40
0.0666666666666667
 40
0.0666666666666667
 40
0.0666666666666667
 40
0.0666666666666667
 40
0.1
 40
0.1
 40
0.1
 40
0.1
 40
0.1333333333333333
 40
0.1333333333333333
 40
0.1333333333333333
 40
0.1333333333333333
 40
0.1666666666666667
 40
0.1666666666666667
 40
0.1666666666666667
 40
0.1666666666666667
 40
0.2
 40
0.2
 40
0.2
 40
0.2
 40
0.2333333333333333
 40
0.2333333333333333
 40
0.2333333333333333
 40
0.2333333333333333
 40
0.2666666666666667
 40
0.2666666666666667
 40
0.2666666666666667
 40
0.2666666666666667
 40
0.3
 40
0.3
 40
0.3
 40
0.3
 40
0.3333333333333333
 40
0.3333333333333333
 40
0.3333333333333333
 40
0.3333333333333333
 40
0.3666666666666666
 40
0.3666666666666666
 40
0.3666666666666666
 40
0.3666666666666666
 40
0.4
 40
0.4
 40
0.4
 40
0.4
 40
0.4333333333333333
 40
0.4333333333333333
 40
0.4333333333333333
 40
0.4333333333333333
 40
0.4666666666666666
 40
0.4666666666666666
 40
0.4666666666666666
 40
0.4666666666666666
 40
0.4999999999999999
 40
0.4999999999999999
 40
0.4999999999999999
 40
0.4999999999999999
 40
0.5333333333333333
 40
0.5333333333333333
 40
0.5333333333333333
 40
0.5333333333333333
 40
0.5666666666666667
 40
0.5666666666666667
 40
0.5666666666666667
 40
0.5666666666666667
 40
0.6
 40
0.6
 40
0.6
 40
0.6
 40
0.6333333333333333
 40
0.6333333333333333
 40
0.6333333333333333
 40
0.6333333333333333
 40
0.6666666666666666
 40
0.6666666666666666
 40
0.6666666666666666
 40
0.6666666666666666
 40
0.7
 40
0.7
 40
0.7
 40
0.7
 40
0.7333333333333333
 40
0.7333333333333333
 40
0.7333333333333333
 40
0.7333333333333333
 40
0.7666666666666666
 40
0.7666666666666666
 40
0.7666666666666666
 40
0.7666666666666666
 40
0.7999999999999999
 40
0.7999999999999999
 40
0.7999999999999999
 40
0.7999999999999999
 40
0.8333333333333333
 40
0.8333333333333333
 40
0.8333333333333333
 40
0.8333333333333333
 40
0.8666666666666666
 40
0.8666666666666666
 40
0.8666666666666666
 40
0.8666666666666666
 40
0.8999999999999999
 40
0.8999999999999999
 40
0.8999999999999999
 40
0.8999999999999999
 40
0.9333333333333332
 40
0.9333333333333332
 40
0.9333333333333332
 40
0.9333333333333332
 40
0.9666666666666666
 40
0.9666666666666666
 40
0.9666666666666666
 40
0.9666666666666666
 40
1.0
 40
1.0
 40
1.0
 40
1.0
 10
-168.1072
 20
2.0309
 30
0.0
 10
-164.4932
 20
2.0309
 30
0.0
 10
-160.8865
 20
2.0309
 30
0.0
 10
-157.286
 20
2.0309
 30
0.0
 10
-157.286
 20
2.0309
 30
0.0
 10
-157.286
 20
2.0309
 30
0.0
 10
-157.286
 20
5.8733
 30
0.0
 10
-157.286
 20
5.8733
 30
0.0
 10
-157.286
 20
5.8733
 30
0.0
 10
-157.286
 20
5.8733
 30
0.0
 10
-142.286
 20
5.8733
 30
0.0
 10
-142.286
 20
5.8733
 30
0.0
 10
-142.286
 20
5.8733
 30
0.0
 10
-142.286
 20
5.8733
 30
0.0
 10
-142.286
 20
2.0309
 30
0.0
 10
-142.286
 20
2.0309
 30
0.0
 10
-142.286
 20
2.0309
 30
0.0
 10
-126.6493
 20
2.0309
 30
0.0
 10
-111.1173
 20
2.0309
 30
0.0
 10
-95.63560000000001
 20
2.0309
 30
0.0
 10
-95.63560000000001
 20
2.0309
 30
0.0
 10
-95.63560000000001
 20
2.0309
 30
0.0
 10
-95.63560000000001
 20
5.8733
 30
0.0
 10
-95.63560000000001
 20
5.8733
 30
0.0
 10
-95.63560000000001
 20
5.8733
 30
0.0
 10
-95.63560000000001
 20
5.8733
 30
0.0
 10
-80.63560000000001
 20
5.8733
 30
0.0
 10
-80.63560000000001
 20
5.8733
 30
0.0
 10
-80.63560000000001
 20
5.8733
 30
0.0
 10
-80.63560000000001
 20
5.8733
 30
0.0
 10
-80.63560000000001
 20
2.0309
 30
0.0
 10
-80.63560000000001
 20
2.0309
 30
0.0
 10
-80.63560000000001
 20
2.0309
 30
0.0
 10
-72.5791
 20
2.0309
 30
0.0
 10
-64.5312
 20
2.0309
 30
0.0
 10
-56.4844
 20
2.0309
 30
0.0
 10
-56.4844
 20
2.0309
 30
0.0
 10
-70.83630000000001
 20
-40.2476
 30
0.0
 10
-83.34050000000001
 20
-72.0082
 30
0.0
 10
-56.4844
 20
-90.3888
 30
0.0
 10
-56.4844
 20
-90.3888
 30
0.0
 10
-64.2937
 20
-90.3888
 30
0.0
 10
-72.361
 20
-90.3888
 30
0.0
 10
-80.63560000000001
 20
-90.3888
 30
0.0
 10
-80.63560000000001
 20
-90.3888
 30
0.0
 10
-80.63560000000001
 20
-90.3888
 30
0.0
 10
-80.63560000000001
 20
-94.26470000000001
 30
0.0
 10
-80.63560000000001
 20
-94.26470000000001
 30
0.0
 10
-80.63560000000001
 20
-94.26470000000001
 30
0.0
 10
-80.63560000000001
 20
-94.26470000000001
 30
0.0
 10
-95.63560000000001
 20
-94.26470000000001
 30
0.0
 10
-95.63560000000001
 20
-94.26470000000001
 30
0.0
 10
-95.63560000000001
 20
-94.26470000000001
 30
0.0
 10
-95.63560000000001
 20
-94.26470000000001
 30
0.0
 10
-95.63560000000001
 20
-90.3888
 30
0.0
 10
-95.63560000000001
 20
-90.3888
 30
0.0
 10
-95.63560000000001
 20
-90.3888
 30
0.0
 10
-110.7151
 20
-90.3888
 30
0.0
 10
-126.3567
 20
-90.3888
 30
0.0
 10
-142.286
 20
-90.3888
 30
0.0
 10
-142.286
 20
-90.3888
 30
0.0
 10
-142.286
 20
-90.3888
 30
0.0
 10
-142.286
 20
-94.26470000000001
 30
0.0
 10
-142.286
 20
-94.26470000000001
 30
0.0
 10
-142.286
 20
-94.26470000000001
 30
0.0
 10
-142.286
 20
-94.26470000000001
 30
0.0
 10
-157.286
 20
-94.26470000000001
 30
0.0
 10
-157.286
 20
-94.26470000000001
 30
0.0
 10
-157.286
 20
-94.26470000000001
 30
0.0
 10
-157.286
 20
-94.26470000000001
 30
0.0
 10
-157.286
 20
-90.3888
 30
0.0
 10
-157.286
 20
-90.3888
 30
0.0
 10
-157.286
 20
-90.3888
 30
0.0
 10
-160.884
 20
-90.3888
 30
0.0
 10
-164.4919
 20
-90.3888
 30
0.0
 10
-168.1072
 20
-90.3888
 30
0.0
 10
-168.1072
 20
-90.3888
 30
0.0
 10
-168.1072
 20
-90.3888
 30
0.0
 10
-169.17
 20
-82.3052
 30
0.0
 10
-169.17
 20
-82.3052
 30
0.0
 10
-169.17
 20
-82.3052
 30
0.0
 10
-169.17
 20
-82.3052
 30
0.0
 10
-165.3739
 20
-81.8095
 30
0.0
 10
-165.3739
 20
-81.8095
 30
0.0
 10
-165.3739
 20
-81.8095
 30
0.0
 10
-165.3739
 20
-81.8095
 30
0.0
 10
-166.4958
 20
-73.0638
 30
0.0
 10
-166.4958
 20
-73.0638
 30
0.0
 10
-166.4958
 20
-73.0638
 30
0.0
 10
-166.4958
 20
-73.0638
 30
0.0
 10
-170.3194
 20
-73.56320000000001
 30
0.0
 10
-170.3194
 20
-73.56320000000001
 30
0.0
 10
-170.3194
 20
-73.56320000000001
 30
0.0
 10
-170.3194
 20
-73.56320000000001
 30
0.0
 10
-177.5764
 20
-18.3675
 30
0.0
 10
-177.5764
 20
-18.3675
 30
0.0
 10
-177.5764
 20
-18.3675
 30
0.0
 10
-177.5764
 20
-18.3675
 30
0.0
 10
-173.7669
 20
-17.8701
 30
0.0
 10
-173.7669
 20
-17.8701
 30
0.0
 10
-173.7669
 20
-17.8701
 30
0.0
 10
-173.7669
 20
-17.8701
 30
0.0
 10
-174.8888
 20
-9.1244
 30
0.0
 10
-174.8888
 20
-9.1244
 30
0.0
 10
-174.8888
 20
-9.1244
 30
0.0
 10
-174.8888
 20
-9.1244
 30
0.0
 10
-178.7258
 20
-9.625500000000001
 30
0.0
 10
-178.7258
 20
-9.625500000000001
 30
0.0
 10
-178.7258
 20
-9.625500000000001
 30
0.0
 10
-178.7258
 20
-9.625500000000001
 30
0.0
 10
-180.2339
 20
1.8448
 30
0.0
 10
-180.2339
 20
1.8448
 30
0.0
 10
-180.2339
 20
1.8448
 30
0.0
 10
-180.2339
 20
1.8448
 30
0.0
 10
-168.1072
 20
1.8447
 30
0.0
 10
-168.1072
 20
1.8447
 30
0.0
 10
-168.1072
 20
1.8447
 30
0.0
 10
-168.1072
 20
1.8447
 30
0.0
 10
-168.1072
 20
2.0309
 30
0.0
 10
-168.1072
 20
2.0309
 30
0.0
  0
SPLINE
  5
32
330
1F
100
AcDbEntity
  8
EBENE_1
100
AcDbSpline
210
0.0
220
0.0
230
1.0
 70
    11
 71
     3
 72
    20
 73
    16
 74
     0
 42
0.0000000001
 43
0.0000000001
 40
0.0
 40
0.0
 40
0.0
 40
0.0
 40
0.25
 40
0.25
 40
0.25
 40
0.25
 40
0.5
 40
0.5
 40
0.5
 40
0.5
 40
0.75
 40
0.75
 40
0.75
 40
0.75
 40
1.0
 40
1.0
 40
1.0
 40
1.0
 10
-61.0758
 20
106.0175
 30
0.0
 10
-61.0758
 20
106.0175
 30
0.0
 10
-61.0758
 20
91.0175
 30
0.0
 10
-61.0758
 20
91.0175
 30
0.0
 10
-61.0758
 20
91.0175
 30
0.0
 10
-61.0758
 20
91.0175
 30
0.0
 10
-65.0758
 20
91.0175
 30
0.0
 10
-65.0758
 20
91.0175
 30
0.0
 10
-65.0758
 20
91.0175
 30
0.0
 10
-65.0758
 20
91.0175
 30
0.0
 10
-65.0758
 20
106.0175
 30
0.0
 10
-65.0758
 20
106.0175
 30
0.0
 10
-65.0758
 20
106.0175
 30
0.0
 10
-65.0758
 20
106.0175
 30
0.0
 10
-61.0758
 20
106.0175
 30
0.0
 10
-61.0758
 20
106.0175
 30
0.0
  0
SPLINE
  5
33
330
1F
100
AcDbEntity
  8
EBENE_1
100
AcDbSpline
210
0.0
220
0.0
230
1.0
 70
    11
 71
     3
 72
    20
 73
    16
 74
     0
 42
0.0000000001
 43
0.0000000001
 40
0.0
 40
0.0
 40
0.0
 40
0.0
 40
0.25
 40
0.25
 40
0.25
 40
0.25
 40
0.5
 40
0.5
 40
0.5
 40
0.5
 40
0.75
 40
0.75
 40
0.75
 40
0.75
 40
1.0
 40
1.0
 40
1.0
 40
1.0
 10
-61.0758
 20
167.6679
 30
0.0
 10
-61.0758
 20
167.6679
 30
0.0
 10
-61.0758
 20
152.6679
 30
0.0
 10
-61.0758
 20
152.6679
 30
0.0
 10
-61.0758
 20
152.6679
 30
0.0
 10
-61.0758
 20
152.6679
 30
0.0
 10
-65.0758
 20
152.6679
 30
0.0
 10
-65.0758
 20
152.6679
 30
0.0
 10
-65.0758
 20
152.6679
 30
0.0
 10
-65.0758
 20
152.6679
 30
0.0
 10
-65.0758
 20
167.6679
 30
0.0
 10
-65.0758
 20
167.6679
 30
0.0
 10
-65.0758
 20
167.6679
 30
0.0
 10
-65.0758
 20
167.6679
 30
0.0
 10
-61.0758
 20
167.6679
 30
0.0
 10
-61.0758
 20
167.6679
 30
0.0
  0
SPLINE
  5
34
330
1F
100
AcDbEntity
  8
EBENE_1
100
AcDbSpline
210
0.0
220
0.0
230
1.0
 70
    11
 71
     3
 72
    20
 73
    16
 74
     0
 42
0.0000000001
 43
0.0000000001
 40
0.0
 40
0.0
 40
0.0
 40
0.0
 40
0.25
 40
0.25
 40
0.25
 40
0.25
 40
0.5
 40
0.5
 40
0.5
 40
0.5
 40
0.75
 40
0.75
 40
0.75
 40
0.75
 40
1.0
 40
1.0
 40
1.0
 40
1.0
 10
9.140000000000001
 20
167.6679
 30
0.0
 10
9.140000000000001
 20
167.6679
 30
0.0
 10
9.140000000000001
 20
152.6679
 30
0.0
 10
9.140000000000001
 20
152.6679
 30
0.0
 10
9.140000000000001
 20
152.6679
 30
0.0
 10
9.140000000000001
 20
152.6679
 30
0.0
 10
5.140000000000001
 20
152.6679
 30
0.0
 10
5.140000000000001
 20
152.6679
 30
0.0
 10
5.140000000000001
 20
152.6679
 30
0.0
 10
5.140000000000001
 20
152.6679
 30
0.0
 10
5.140000000000001
 20
167.6679
 30
0.0
 10
5.140000000000001
 20
167.6679
 30
0.0
 10
5.140000000000001
 20
167.6679
 30
0.0
 10
5.140000000000001
 20
167.6679
 30
0.0
 10
9.140000000000001
 20
167.6679
 30
0.0
 10
9.140000000000001
 20
167.6679
 30
0.0
  0
SPLINE
  5
35
330
1F
100
AcDbEntity
  8
EBENE_1
100
AcDbSpline
210
0.0
220
0.0
230
1.0
 70
    11
 71
     3
 72
    20
 73
    16
 74
     0
 42
0.0000000001
 43
0.0000000001
 40
0.0
 40
0.0
 40
0.0
 40
0.0
 40
0.25
 40
0.25
 40
0.25
 40
0.25
 40
0.5
 40
0.5
 40
0.5
 40
0.5
 40
0.75
 40
0.75
 40
0.75
 40
0.75
 40
1.0
 40
1.0
 40
1.0
 40
1.0
 10
9.140000000000001
 20
106.0175
 30
0.0
 10
9.140000000000001
 20
106.0175
 30
0.0
 10
9.140000000000001
 20
91.0175
 30
0.0
 10
9.140000000000001
 20
91.0175
 30
0.0
 10
9.140000000000001
 20
91.0175
 30
0.0
 10
9.140000000000001
 20
91.0175
 30
0.0
 10
5.140000000000001
 20
91.0175
 30
0.0
 10
5.140000000000001
 20
91.0175
 30
0.0
 10
5.140000000000001
 20
91.0175
 30
0.0
 10
5.140000000000001
 20
91.0175
 30
0.0
 10
5.140000000000001
 20
106.0175
 30
0.0
 10
5.140000000000001
 20
106.0175
 30
0.0
 10
5.140000000000001
 20
106.0175
 30
0.0
 10
5.140000000000001
 20
106.0175
 30
0.0
 10
9.140000000000001
 20
106.0175
 30
0.0
 10
9.140000000000001
 20
106.0175
 30
0.0
  0
SPLINE
  5
36
330
1F
100
AcDbEntity
  8
EBENE_1
100
AcDbSpline
210
0.0
220
0.0
230
1.0
 70
    11
 71
     3
 72
    20
 73
    16
 74
     0
 42
0.0000000001
 43
0.0000000001
 40
0.0
 40
0.0
 40
0.0
 40
0.0
 40
0.25
 40
0.25
 40
0.25
 40
0.25
 40
0.5
 40
0.5
 40
0.5
 40
0.5
 40
0.75
 40
0.75
 40
0.75
 40
0.75
 40
1.0
 40
1.0
 40
1.0
 40
1.0
 10
18.2447
 20
180.1791
 30
0.0
 10
18.2447
 20
180.1791
 30
0.0
 10
18.2447
 20
65.30330000000001
 30
0.0
 10
18.2447
 20
65.30330000000001
 30
0.0
 10
18.2447
 20
65.30330000000001
 30
0.0
 10
18.2447
 20
65.30330000000001
 30
0.0
 10
-72.74420000000001
 20
65.30330000000001
 30
0.0
 10
-72.74420000000001
 20
65.30330000000001
 30
0.0
 10
-72.74420000000001
 20
65.30330000000001
 30
0.0
 10
-72.74420000000001
 20
65.30330000000001
 30
0.0
 10
-72.74420000000001
 20
180.1791
 30
0.0
 10
-72.74420000000001
 20
180.1791
 30
0.0
 10
-72.74420000000001
 20
180.1791
 30
0.0
 10
-72.74420000000001
 20
180.1791
 30
0.0
 10
18.2447
 20
180.1791
 30
0.0
 10
18.2447
 20
180.1791
 30
0.0
  0
SPLINE
  5
37
330
1F
100
AcDbEntity
  8
EBENE_1
100
AcDbSpline
210
0.0
220
0.0
230
1.0
 70
    11
 71
     3
 72
    84
 73
    80
 74
     0
 42
0.0000000001
 43
0.0000000001
 40
0.0
 40
0.0
 40
0.0
 40
0.0
 40
0.05
 40
0.05
 40
0.05
 40
0.05
 40
0.1
 40
0.1
 40
0.1
 40
0.1
 40
0.15
 40
0.15
 40
0.15
 40
0.15
 40
0.2
 40
0.2
 40
0.2
 40
0.2
 40
0.25
 40
0.25
 40
0.25
 40
0.25
 40
0.3
 40
0.3
 40
0.3
 40
0.3
 40
0.35
 40
0.35
 40
0.35
 40
0.35
 40
0.4
 40
0.4
 40
0.4
 40
0.4
 40
0.45
 40
0.45
 40
0.45
 40
0.45
 40
0.4999999999999999
 40
0.4999999999999999
 40
0.4999999999999999
 40
0.4999999999999999
 40
0.5499999999999999
 40
0.5499999999999999
 40
0.5499999999999999
 40
0.5499999999999999
 40
0.6
 40
0.6
 40
0.6
 40
0.6
 40
0.65
 40
0.65
 40
0.65
 40
0.65
 40
0.7000000000000001
 40
0.7000000000000001
 40
0.7000000000000001
 40
0.7000000000000001
 40
0.7500000000000001
 40
0.7500000000000001
 40
0.7500000000000001
 40
0.7500000000000001
 40
0.8000000000000002
 40
0.8000000000000002
 40
0.8000000000000002
 40
0.8000000000000002
 40
0.8500000000000002
 40
0.8500000000000002
 40
0.8500000000000002
 40
0.8500000000000002
 40
0.9000000000000002
 40
0.9000000000000002
 40
0.9000000000000002
 40
0.9000000000000002
 40
0.9500000000000003
 40
0.9500000000000003
 40
0.9500000000000003
 40
0.9500000000000003
 40
1.0
 40
1.0
 40
1.0
 40
1.0
 10
123.4033
 20
-182.3843
 30
0.0
 10
123.4033
 20
-182.3843
 30
0.0
 10
123.4033
 20
-171.3926
 30
0.0
 10
123.4033
 20
-171.3926
 30
0.0
 10
123.4033
 20
-171.3926
 30
0.0
 10
123.4033
 20
-171.3926
 30
0.0
 10
127.1595
 20
-171.3863
 30
0.0
 10
127.1595
 20
-171.3863
 30
0.0
 10
127.1595
 20
-171.3863
 30
0.0
 10
127.1595
 20
-171.3863
 30
0.0
 10
127.1648
 20
-162.5691
 30
0.0
 10
127.1648
 20
-162.5691
 30
0.0
 10
127.1648
 20
-162.5691
 30
0.0
 10
127.1648
 20
-162.5691
 30
0.0
 10
123.4033
 20
-162.5754
 30
0.0
 10
123.4033
 20
-162.5754
 30
0.0
 10
123.4033
 20
-162.5754
 30
0.0
 10
123.4033
 20
-162.5754
 30
0.0
 10
123.4033
 20
-106.9051
 30
0.0
 10
123.4033
 20
-106.9051
 30
0.0
 10
123.4033
 20
-106.9051
 30
0.0
 10
123.4033
 20
-106.9051
 30
0.0
 10
127.1578
 20
-106.8985
 30
0.0
 10
127.1578
 20
-106.8985
 30
0.0
 10
127.1578
 20
-106.8985
 30
0.0
 10
127.1578
 20
-106.8985
 30
0.0
 10
127.1631
 20
-98.0814
 30
0.0
 10
127.1631
 20
-98.0814
 30
0.0
 10
127.1631
 20
-98.0814
 30
0.0
 10
127.1631
 20
-98.0814
 30
0.0
 10
123.4033
 20
-98.0877
 30
0.0
 10
123.4033
 20
-98.0877
 30
0.0
 10
123.4033
 20
-98.0877
 30
0.0
 10
123.4033
 20
-98.0877
 30
0.0
 10
123.4033
 20
-89.3104
 30
0.0
 10
123.4033
 20
-89.3104
 30
0.0
 10
123.4033
 20
-89.3104
 30
0.0
 10
123.4033
 20
-89.3104
 30
0.0
 10
56.9561
 20
-89.3104
 30
0.0
 10
56.9561
 20
-89.3104
 30
0.0
 10
56.9561
 20
-89.3104
 30
0.0
 10
56.9561
 20
-89.3104
 30
0.0
 10
56.9561
 20
-98.08160000000001
 30
0.0
 10
56.9561
 20
-98.08160000000001
 30
0.0
 10
56.9561
 20
-98.08160000000001
 30
0.0
 10
56.9561
 20
-98.08160000000001
 30
0.0
 10
53.0544
 20
-98.08810000000001
 30
0.0
 10
53.0544
 20
-98.08810000000001
 30
0.0
 10
53.0544
 20
-98.08810000000001
 30
0.0
 10
53.0544
 20
-98.08810000000001
 30
0.0
 10
53.0493
 20
-106.9055
 30
0.0
 10
53.0493
 20
-106.9055
 30
0.0
 10
53.0493
 20
-106.9055
 30
0.0
 10
53.0493
 20
-106.9055
 30
0.0
 10
56.9561
 20
-106.8987
 30
0.0
 10
56.9561
 20
-106.8987
 30
0.0
 10
56.9561
 20
-106.8987
 30
0.0
 10
56.9561
 20
-106.8987
 30
0.0
 10
56.9561
 20
-162.5693
 30
0.0
 10
56.9561
 20
-162.5693
 30
0.0
 10
56.9561
 20
-162.5693
 30
0.0
 10
56.9561
 20
-162.5693
 30
0.0
 10
53.056
 20
-162.5758
 30
0.0
 10
53.056
 20
-162.5758
 30
0.0
 10
53.056
 20
-162.5758
 30
0.0
 10
53.056
 20
-162.5758
 30
0.0
 10
53.0507
 20
-171.393
 30
0.0
 10
53.0507
 20
-171.393
 30
0.0
 10
53.0507
 20
-171.393
 30
0.0
 10
53.0507
 20
-171.393
 30
0.0
 10
56.9561
 20
-171.3865
 30
0.0
 10
56.9561
 20
-171.3865
 30
0.0
 10
56.9561
 20
-171.3865
 30
0.0
 10
56.9561
 20
-171.3865
 30
0.0
 10
56.9561
 20
-182.3843
 30
0.0
 10
56.9561
 20
-182.3843
 30
0.0
 10
56.9561
 20
-182.3843
 30
0.0
 10
56.9561
 20
-182.3843
 30
0.0
 10
123.4033
 20
-182.3843
 30
0.0
 10
123.4033
 20
-182.3843
 30
0.0
  0
SPLINE
  5
38
330
1F
100
AcDbEntity
  8
EBENE_1
100
AcDbSpline
210
0.0
220
0.0
230
1.0
 70
    11
 71
     3
 72
    36
 73
    32
 74
     0
 42
0.0000000001
 43
0.0000000001
 40
0.0
 40
0.0
 40
0.0
 40
0.0
 40
0.125
 40
0.125
 40
0.125
 40
0.125
 40
0.25
 40
0.25
 40
0.25
 40
0.25
 40
0.375
 40
0.375
 40
0.375
 40
0.375
 40
0.5
 40
0.5
 40
0.5
 40
0.5
 40
0.625
 40
0.625
 40
0.625
 40
0.625
 40
0.75
 40
0.75
 40
0.75
 40
0.75
 40
0.875
 40
0.875
 40
0.875
 40
0.875
 40
1.0
 40
1.0
 40
1.0
 40
1.0
 10
85.2525
 20
-97.6174
 30
0.0
 10
85.2525
 20
-97.6174
 30
0.0
 10
65.5639
 20
-97.6174
 30
0.0
 10
65.5639
 20
-97.6174
 30
0.0
 10
65.5639
 20
-97.6174
 30
0.0
 10
64.4119
 20
-97.6174
 30
0.0
 10
63.4694
 20
-98.97280000000001
 30
0.0
 10
63.4694
 20
-100.6295
 30
0.0
 10
63.4694
 20
-100.6295
 30
0.0
 10
63.4694
 20
-100.6295
 30
0.0
 10
63.4694
 20
-131.9554
 30
0.0
 10
63.4694
 20
-131.9554
 30
0.0
 10
63.4694
 20
-131.9554
 30
0.0
 10
63.4694
 20
-133.6121
 30
0.0
 10
64.4119
 20
-134.9675
 30
0.0
 10
65.5639
 20
-134.9675
 30
0.0
 10
65.5639
 20
-134.9675
 30
0.0
 10
65.5639
 20
-134.9675
 30
0.0
 10
85.2525
 20
-134.9675
 30
0.0
 10
85.2525
 20
-134.9675
 30
0.0
 10
85.2525
 20
-134.9675
 30
0.0
 10
86.4045
 20
-134.9675
 30
0.0
 10
87.34700000000001
 20
-133.6121
 30
0.0
 10
87.34700000000001
 20
-131.9554
 30
0.0
 10
87.34700000000001
 20
-131.9554
 30
0.0
 10
87.34700000000001
 20
-131.9554
 30
0.0
 10
87.34700000000001
 20
-100.6295
 30
0.0
 10
87.34700000000001
 20
-100.6295
 30
0.0
 10
87.34700000000001
 20
-100.6295
 30
0.0
 10
87.34700000000001
 20
-98.97280000000001
 30
0.0
 10
86.4045
 20
-97.6174
 30
0.0
 10
85.2525
 20
-97.6174
 30
0.0
  0
SPLINE
  5
39
330
1F
100
AcDbEntity
  8
EBENE_1
100
AcDbSpline
210
0.0
220
0.0
230
1.0
 70
    11
 71
     3
 72
    36
 73
    32
 74
     0
 42
0.0000000001
 43
0.0000000001
 40
0.0
 40
0.0
 40
0.0
 40
0.0
 40
0.125
 40
0.125
 40
0.125
 40
0.125
 40
0.25
 40
0.25
 40
0.25
 40
0.25
 40
0.375
 40
0.375
 40
0.375
 40
0.375
 40
0.5
 40
0.5
 40
0.5
 40
0.5
 40
0.625
 40
0.625
 40
0.625
 40
0.625
 40
0.75
 40
0.75
 40
0.75
 40
0.75
 40
0.875
 40
0.875
 40
0.875
 40
0.875
 40
1.0
 40
1.0
 40
1.0
 40
1.0
 10
115.2143
 20
-97.6174
 30
0.0
 10
115.2143
 20
-97.6174
 30
0.0
 10
95.5257
 20
-97.6174
 30
0.0
 10
95.5257
 20
-97.6174
 30
0.0
 10
95.5257
 20
-97.6174
 30
0.0
 10
94.3737
 20
-97.6174
 30
0.0
 10
93.4312
 20
-98.97280000000001
 30
0.0
 10
93.4312
 20
-100.6295
 30
0.0
 10
93.4312
 20
-100.6295
 30
0.0
 10
93.4312
 20
-100.6295
 30
0.0
 10
93.4312
 20
-131.9554
 30
0.0
 10
93.4312
 20
-131.9554
 30
0.0
 10
93.4312
 20
-131.9554
 30
0.0
 10
93.4312
 20
-133.6121
 30
0.0
 10
94.3737
 20
-134.9675
 30
0.0
 10
95.5257
 20
-134.9675
 30
0.0
 10
95.5257
 20
-134.9675
 30
0.0
 10
95.5257
 20
-134.9675
 30
0.0
 10
115.2143
 20
-134.9675
 30
0.0
 10
115.2143
 20
-134.9675
 30
0.0
 10
115.2143
 20
-134.9675
 30
0.0
 10
116.3663
 20
-134.9675
 30
0.0
 10
117.3088
 20
-133.6121
 30
0.0
 10
117.3088
 20
-131.9554
 30
0.0
 10
117.3088
 20
-131.9554
 30
0.0
 10
117.3088
 20
-131.9554
 30
0.0
 10
117.3088
 20
-100.6295
 30
0.0
 10
117.3088
 20
-100.6295
 30
0.0
 10
117.3088
 20
-100.6295
 30
0.0
 10
117.3088
 20
-98.97280000000001
 30
0.0
 10
116.3663
 20
-97.6174
 30
0.0
 10
115.2143
 20
-97.6174
 30
0.0
  0
SPLINE
  5
3A
330
1F
100
AcDbEntity
  8
EBENE_1
100
AcDbSpline
210
0.0
220
0.0
230
1.0
 70
    11
 71
     3
 72
   100
 73
    96
 74
     0
 42
0.0000000001
 43
0.0000000001
 40
0.0
 40
0.0
 40
0.0
 40
0.0
 40
0.0416666666666667
 40
0.0416666666666667
 40
0.0416666666666667
 40
0.0416666666666667
 40
0.0833333333333333
 40
0.0833333333333333
 40
0.0833333333333333
 40
0.0833333333333333
 40
0.125
 40
0.125
 40
0.125
 40
0.125
 40
0.1666666666666667
 40
0.1666666666666667
 40
0.1666666666666667
 40
0.1666666666666667
 40
0.2083333333333333
 40
0.2083333333333333
 40
0.2083333333333333
 40
0.2083333333333333
 40
0.25
 40
0.25
 40
0.25
 40
0.25
 40
0.2916666666666666
 40
0.2916666666666666
 40
0.2916666666666666
 40
0.2916666666666666
 40
0.3333333333333333
 40
0.3333333333333333
 40
0.3333333333333333
 40
0.3333333333333333
 40
0.375
 40
0.375
 40
0.375
 40
0.375
 40
0.4166666666666667
 40
0.4166666666666667
 40
0.4166666666666667
 40
0.4166666666666667
 40
0.4583333333333334
 40
0.4583333333333334
 40
0.4583333333333334
 40
0.4583333333333334
 40
0.5
 40
0.5
 40
0.5
 40
0.5
 40
0.5416666666666666
 40
0.5416666666666666
 40
0.5416666666666666
 40
0.5416666666666666
 40
0.5833333333333333
 40
0.5833333333333333
 40
0.5833333333333333
 40
0.5833333333333333
 40
0.6249999999999999
 40
0.6249999999999999
 40
0.6249999999999999
 40
0.6249999999999999
 40
0.6666666666666665
 40
0.6666666666666665
 40
0.6666666666666665
 40
0.6666666666666665
 40
0.7083333333333332
 40
0.7083333333333332
 40
0.7083333333333332
 40
0.7083333333333332
 40
0.7499999999999998
 40
0.7499999999999998
 40
0.7499999999999998
 40
0.7499999999999998
 40
0.7916666666666664
 40
0.7916666666666664
 40
0.7916666666666664
 40
0.7916666666666664
 40
0.833333333333333
 40
0.833333333333333
 40
0.833333333333333
 40
0.833333333333333
 40
0.8749999999999997
 40
0.8749999999999997
 40
0.8749999999999997
 40
0.8749999999999997
 40
0.9166666666666663
 40
0.9166666666666663
 40
0.9166666666666663
 40
0.9166666666666663
 40
0.9583333333333329
 40
0.9583333333333329
 40
0.9583333333333329
 40
0.9583333333333329
 40
1.0
 40
1.0
 40
1.0
 40
1.0
 10
-240.4153
 20
-131.5205
 30
0.0
 10
-240.4153
 20
-131.5205
 30
0.0
 10
-245.4153
 20
-131.5205
 30
0.0
 10
-245.4153
 20
-131.5205
 30
0.0
 10
-245.4153
 20
-131.5205
 30
0.0
 10
-245.4153
 20
-131.5205
 30
0.0
 10
-245.4153
 20
-127.5996
 30
0.0
 10
-245.4153
 20
-127.5996
 30
0.0
 10
-245.4153
 20
-127.5996
 30
0.0
 10
-245.4153
 20
-127.5996
 30
0.0
 10
-250.4153
 20
-127.5996
 30
0.0
 10
-250.4153
 20
-127.5996
 30
0.0
 10
-250.4153
 20
-127.5996
 30
0.0
 10
-250.4153
 20
-127.5996
 30
0.0
 10
-250.4153
 20
-131.5205
 30
0.0
 10
-250.4153
 20
-131.5205
 30
0.0
 10
-250.4153
 20
-131.5205
 30
0.0
 10
-250.4153
 20
-131.5205
 30
0.0
 10
-255.4153
 20
-131.5205
 30
0.0
 10
-255.4153
 20
-131.5205
 30
0.0
 10
-255.4153
 20
-131.5205
 30
0.0
 10
-255.4153
 20
-131.5205
 30
0.0
 10
-255.4153
 20
-127.5996
 30
0.0
 10
-255.4153
 20
-127.5996
 30
0.0
 10
-255.4153
 20
-127.5996
 30
0.0
 10
-255.4153
 20
-127.5996
 30
0.0
 10
-260.4153
 20
-127.5996
 30
0.0
 10
-260.4153
 20
-127.5996
 30
0.0
 10
-260.4153
 20
-127.5996
 30
0.0
 10
-260.4153
 20
-127.5996
 30
0.0
 10
-260.4153
 20
-131.5205
 30
0.0
 10
-260.4153
 20
-131.5205
 30
0.0
 10
-260.4153
 20
-131.5205
 30
0.0
 10
-260.4153
 20
-131.5205
 30
0.0
 10
-265.4153
 20
-131.5205
 30
0.0
 10
-265.4153
 20
-131.5205
 30
0.0
 10
-265.4153
 20
-131.5205
 30
0.0
 10
-265.4153
 20
-131.5205
 30
0.0
 10
-265.4153
 20
-127.5996
 30
0.0
 10
-265.4153
 20
-127.5996
 30
0.0
 10
-265.4153
 20
-127.5996
 30
0.0
 10
-265.4153
 20
-127.5996
 30
0.0
 10
-270.4153
 20
-127.5996
 30
0.0
 10
-270.4153
 20
-127.5996
 30
0.0
 10
-270.4153
 20
-127.5996
 30
0.0
 10
-270.4153
 20
-127.5996
 30
0.0
 10
-270.4153
 20
-131.5205
 30
0.0
 10
-270.4153
 20
-131.5205
 30
0.0
 10
-270.4153
 20
-131.5205
 30
0.0
 10
-270.4153
 20
-131.5205
 30
0.0
 10
-275.4182
 20
-131.5205
 30
0.0
 10
-275.4182
 20
-131.5205
 30
0.0
 10
-275.4182
 20
-131.5205
 30
0.0
 10
-275.4182
 20
-131.5205
 30
0.0
 10
-275.4182
 20
-98.28400000000001
 30
0.0
 10
-275.4182
 20
-98.28400000000001
 30
0.0
 10
-275.4182
 20
-98.28400000000001
 30
0.0
 10
-275.4182
 20
-98.28400000000001
 30
0.0
 10
-286.3699
 20
-98.28400000000001
 30
0.0
 10
-286.3699
 20
-98.28400000000001
 30
0.0
 10
-286.3699
 20
-98.28400000000001
 30
0.0
 10
-286.3699
 20
-98.28400000000001
 30
0.0
 10
-286.3699
 20
-184.3788
 30
0.0
 10
-286.3699
 20
-184.3788
 30
0.0
 10
-286.3699
 20
-184.3788
 30
0.0
 10
-286.3699
 20
-184.3788
 30
0.0
 10
-286.3015
 20
-184.3788
 30
0.0
 10
-286.3015
 20
-184.3788
 30
0.0
 10
-286.3015
 20
-184.3788
 30
0.0
 10
-286.3015
 20
-184.3788
 30
0.0
 10
-286.3015
 20
-192.6186
 30
0.0
 10
-286.3015
 20
-192.6186
 30
0.0
 10
-286.3015
 20
-192.6186
 30
0.0
 10
-286.3015
 20
-192.6186
 30
0.0
 10
-270.0918
 20
-192.6186
 30
0.0
 10
-270.0918
 20
-192.6186
 30
0.0
 10
-270.0918
 20
-192.6186
 30
0.0
 10
-270.0918
 20
-192.6186
 30
0.0
 10
-236.4691
 20
-131.5996
 30
0.0
 10
-236.4691
 20
-131.5996
 30
0.0
 10
-236.4691
 20
-131.5996
 30
0.0
 10
-236.4691
 20
-131.5996
 30
0.0
 10
-235.4153
 20
-131.5996
 30
0.0
 10
-235.4153
 20
-131.5996
 30
0.0
 10
-235.4153
 20
-131.5996
 30
0.0
 10
-235.4153
 20
-131.5996
 30
0.0
 10
-235.4153
 20
-127.5996
 30
0.0
 10
-235.4153
 20
-127.5996
 30
0.0
 10
-235.4153
 20
-127.5996
 30
0.0
 10
-235.4153
 20
-127.5996
 30
0.0
 10
-240.4153
 20
-127.5996
 30
0.0
 10
-240.4153
 20
-127.5996
 30
0.0
 10
-240.4153
 20
-127.5996
 30
0.0
 10
-240.4153
 20
-127.5996
 30
0.0
 10
-240.4153
 20
-131.5205
 30
0.0
 10
-240.4153
 20
-131.5205
 30
0.0
  0
POLYLINE
  5
3B
330
1F
100
AcDbEntity
  8
EBENE_1
100
AcDb2dPolyline
 66
     1
 10
0.0
 20
0.0
 30
0.0
 70
     1
  0
VERTEX
  5
61
330
3B
100
AcDbEntity
  8
EBENE_1
100
AcDbVertex
100
AcDb2dVertex
 10
71.47590000000001
 20
-76.62090000000001
 30
0.0
  0
VERTEX
  5
62
330
3B
100
AcDbEntity
  8
EBENE_1
100
AcDbVertex
100
AcDb2dVertex
 10
83.47590000000001
 20
-76.62090000000001
 30
0.0
  0
VERTEX
  5
63
330
3B
100
AcDbEntity
  8
EBENE_1
100
AcDbVertex
100
AcDb2dVertex
 10
83.47590000000001
 20
17.6915
 30
0.0
  0
VERTEX
  5
64
330
3B
100
AcDbEntity
  8
EBENE_1
100
AcDbVertex
100
AcDb2dVertex
 10
71.47590000000001
 20
17.6915
 30
0.0
  0
VERTEX
  5
65
330
3B
100
AcDbEntity
  8
EBENE_1
100
AcDbVertex
100
AcDb2dVertex
 10
71.47590000000001
 20
-76.62090000000001
 30
0.0
  0
SEQEND
  5
60
330
3B
100
AcDbEntity
  8
EBENE_1
  0
SPLINE
  5
3C
330
1F
100
AcDbEntity
  8
EBENE_1
 62
     7
100
AcDbSpline
210
0.0
220
0.0
230
1.0
 70
    11
 71
     3
 72
    20
 73
    16
 74
     0
 42
0.0000000001
 43
0.0000000001
 40
0.0
 40
0.0
 40
0.0
 40
0.0
 40
0.25
 40
0.25
 40
0.25
 40
0.25
 40
0.5
 40
0.5
 40
0.5
 40
0.5
 40
0.75
 40
0.75
 40
0.75
 40
0.75
 40
1.0
 40
1.0
 40
1.0
 40
1.0
 10
4.9116
 20
44.3047
 30
0.0
 10
4.9116
 20
42.9242
 30
0.0
 10
6.0312
 20
41.8046
 30
0.0
 10
7.4116
 20
41.8046
 30
0.0
 10
7.4116
 20
41.8046
 30
0.0
 10
8.7921
 20
41.8046
 30
0.0
 10
9.9116
 20
42.9242
 30
0.0
 10
9.9116
 20
44.3047
 30
0.0
 10
9.9116
 20
44.3047
 30
0.0
 10
9.9116
 20
45.68510000000001
 30
0.0
 10
8.7921
 20
46.8046
 30
0.0
 10
7.4116
 20
46.8046
 30
0.0
 10
7.4116
 20
46.8046
 30
0.0
 10
6.0312
 20
46.8046
 30
0.0
 10
4.9116
 20
45.68510000000001
 30
0.0
 10
4.9116
 20
44.3047
 30
0.0
  0
SPLINE
  5
3D
330
1F
100
AcDbEntity
  8
EBENE_1
 62
     7
100
AcDbSpline
210
0.0
220
0.0
230
1.0
 70
    11
 71
     3
 72
    20
 73
    16
 74
     0
 42
0.0000000001
 43
0.0000000001
 40
0.0
 40
0.0
 40
0.0
 40
0.0
 40
0.25
 40
0.25
 40
0.25
 40
0.25
 40
0.5
 40
0.5
 40
0.5
 40
0.5
 40
0.75
 40
0.75
 40
0.75
 40
0.75
 40
1.0
 40
1.0
 40
1.0
 40
1.0
 10
25.0574
 20
44.3047
 30
0.0
 10
25.0574
 20
42.9242
 30
0.0
 10
26.177
 20
41.8046
 30
0.0
 10
27.5574
 20
41.8046
 30
0.0
 10
27.5574
 20
41.8046
 30
0.0
 10
28.9379
 20
41.8046
 30
0.0
 10
30.0574
 20
42.9242
 30
0.0
 10
30.0574
 20
44.3047
 30
0.0
 10
30.0574
 20
44.3047
 30
0.0
 10
30.0574
 20
45.68510000000001
 30
0.0
 10
28.9379
 20
46.8046
 30
0.0
 10
27.5574
 20
46.8046
 30
0.0
 10
27.5574
 20
46.8046
 30
0.0
 10
26.177
 20
46.8046
 30
0.0
 10
25.0574
 20
45.68510000000001
 30
0.0
 10
25.0574
 20
44.3047
 30
0.0
  0
SPLINE
  5
3E
330
1F
100
AcDbEntity
  8
EBENE_1
 62
     7
100
AcDbSpline
210
0.0
220
0.0
230
1.0
 70
    11
 71
     3
 72
    20
 73
    16
 74
     0
 42
0.0000000001
 43
0.0000000001
 40
0.0
 40
0.0
 40
0.0
 40
0.0
 40
0.25
 40
0.25
 40
0.25
 40
0.25
 40
0.5
 40
0.5
 40
0.5
 40
0.5
 40
0.75
 40
0.75
 40
0.75
 40
0.75
 40
1.0
 40
1.0
 40
1.0
 40
1.0
 10
4.9116
 20
-106.0562
 30
0.0
 10
4.9116
 20
-107.4367
 30
0.0
 10
6.0312
 20
-108.5563
 30
0.0
 10
7.4116
 20
-108.5563
 30
0.0
 10
7.4116
 20
-108.5563
 30
0.0
 10
8.7921
 20
-108.5563
 30
0.0
 10
9.9116
 20
-107.4367
 30
0.0
 10
9.9116
 20
-106.0562
 30
0.0
 10
9.9116
 20
-106.0562
 30
0.0
 10
9.9116
 20
-104.6758
 30
0.0
 10
8.7921
 20
-103.5563
 30
0.0
 10
7.4116
 20
-103.5563
 30
0.0
 10
7.4116
 20
-103.5563
 30
0.0
 10
6.0312
 20
-103.5563
 30
0.0
 10
4.9116
 20
-104.6758
 30
0.0
 10
4.9116
 20
-106.0562
 30
0.0
  0
SPLINE
  5
3F
330
1F
100
AcDbEntity
  8
EBENE_1
 62
     7
100
AcDbSpline
210
0.0
220
0.0
230
1.0
 70
    11
 71
     3
 72
    20
 73
    16
 74
     0
 42
0.0000000001
 43
0.0000000001
 40
0.0
 40
0.0
 40
0.0
 40
0.0
 40
0.25
 40
0.25
 40
0.25
 40
0.25
 40
0.5
 40
0.5
 40
0.5
 40
0.5
 40
0.75
 40
0.75
 40
0.75
 40
0.75
 40
1.0
 40
1.0
 40
1.0
 40
1.0
 10
25.0574
 20
-106.0562
 30
0.0
 10
25.0574
 20
-107.4367
 30
0.0
 10
26.177
 20
-108.5563
 30
0.0
 10
27.5574
 20
-108.5563
 30
0.0
 10
27.5574
 20
-108.5563
 30
0.0
 10
28.9379
 20
-108.5563
 30
0.0
 10
30.0574
 20
-107.4367
 30
0.0
 10
30.0574
 20
-106.0562
 30
0.0
 10
30.0574
 20
-106.0562
 30
0.0
 10
30.0574
 20
-104.6758
 30
0.0
 10
28.9379
 20
-103.5563
 30
0.0
 10
27.5574
 20
-103.5563
 30
0.0
 10
27.5574
 20
-103.5563
 30
0.0
 10
26.177
 20
-103.5563
 30
0.0
 10
25.0574
 20
-104.6758
 30
0.0
 10
25.0574
 20
-106.0562
 30
0.0
  0
SPLINE
  5
40
330
1F
100
AcDbEntity
  8
EBENE_1
 62
     7
100
AcDbSpline
210
0.0
220
0.0
230
1.0
 70
    11
 71
     3
 72
    20
 73
    16
 74
     0
 42
0.0000000001
 43
0.0000000001
 40
0.0
 40
0.0
 40
0.0
 40
0.0
 40
0.25
 40
0.25
 40
0.25
 40
0.25
 40
0.5
 40
0.5
 40
0.5
 40
0.5
 40
0.75
 40
0.75
 40
0.75
 40
0.75
 40
1.0
 40
1.0
 40
1.0
 40
1.0
 10
48.841
 20
61.32830000000001
 30
0.0
 10
48.841
 20
61.32830000000001
 30
0.0
 10
48.841
 20
-121.9376
 30
0.0
 10
48.841
 20
-121.9376
 30
0.0
 10
48.841
 20
-121.9376
 30
0.0
 10
48.841
 20
-121.9376
 30
0.0
 10
-5.4241
 20
-121.9376
 30
0.0
 10
-5.4241
 20
-121.9376
 30
0.0
 10
-5.4241
 20
-121.9376
 30
0.0
 10
-5.4241
 20
-121.9376
 30
0.0
 10
-5.4241
 20
61.32830000000001
 30
0.0
 10
-5.4241
 20
61.32830000000001
 30
0.0
 10
-5.4241
 20
61.32830000000001
 30
0.0
 10
-5.4241
 20
61.32830000000001
 30
0.0
 10
48.841
 20
61.32830000000001
 30
0.0
 10
48.841
 20
61.32830000000001
 30
0.0
  0
SPLINE
  5
41
330
1F
100
AcDbEntity
  8
EBENE_1
 62
     7
100
AcDbSpline
210
0.0
220
0.0
230
1.0
 70
    11
 71
     3
 72
    20
 73
    16
 74
     0
 42
0.0000000001
 43
0.0000000001
 40
0.0
 40
0.0
 40
0.0
 40
0.0
 40
0.25
 40
0.25
 40
0.25
 40
0.25
 40
0.5
 40
0.5
 40
0.5
 40
0.5
 40
0.75
 40
0.75
 40
0.75
 40
0.75
 40
1.0
 40
1.0
 40
1.0
 40
1.0
 10
4.786300000000001
 20
52.7208
 30
0.0
 10
4.786300000000001
 20
52.7208
 30
0.0
 10
-0.2137
 20
52.7208
 30
0.0
 10
-0.2137
 20
52.7208
 30
0.0
 10
-0.2137
 20
52.7208
 30
0.0
 10
-0.2137
 20
52.7208
 30
0.0
 10
-0.2137
 20
48.7208
 30
0.0
 10
-0.2137
 20
48.7208
 30
0.0
 10
-0.2137
 20
48.7208
 30
0.0
 10
-0.2137
 20
48.7208
 30
0.0
 10
4.786300000000001
 20
48.7208
 30
0.0
 10
4.786300000000001
 20
48.7208
 30
0.0
 10
4.786300000000001
 20
48.7208
 30
0.0
 10
4.786300000000001
 20
48.7208
 30
0.0
 10
4.786300000000001
 20
52.7208
 30
0.0
 10
4.786300000000001
 20
52.7208
 30
0.0
  0
SPLINE
  5
42
330
1F
100
AcDbEntity
  8
EBENE_1
 62
     7
100
AcDbSpline
210
0.0
220
0.0
230
1.0
 70
    11
 71
     3
 72
    20
 73
    16
 74
     0
 42
0.0000000001
 43
0.0000000001
 40
0.0
 40
0.0
 40
0.0
 40
0.0
 40
0.25
 40
0.25
 40
0.25
 40
0.25
 40
0.5
 40
0.5
 40
0.5
 40
0.5
 40
0.75
 40
0.75
 40
0.75
 40
0.75
 40
1.0
 40
1.0
 40
1.0
 40
1.0
 10
14.7863
 20
52.7208
 30
0.0
 10
14.7863
 20
52.7208
 30
0.0
 10
9.786300000000001
 20
52.7208
 30
0.0
 10
9.786300000000001
 20
52.7208
 30
0.0
 10
9.786300000000001
 20
52.7208
 30
0.0
 10
9.786300000000001
 20
52.7208
 30
0.0
 10
9.786300000000001
 20
48.7208
 30
0.0
 10
9.786300000000001
 20
48.7208
 30
0.0
 10
9.786300000000001
 20
48.7208
 30
0.0
 10
9.786300000000001
 20
48.7208
 30
0.0
 10
14.7863
 20
48.7208
 30
0.0
 10
14.7863
 20
48.7208
 30
0.0
 10
14.7863
 20
48.7208
 30
0.0
 10
14.7863
 20
48.7208
 30
0.0
 10
14.7863
 20
52.7208
 30
0.0
 10
14.7863
 20
52.7208
 30
0.0
  0
SPLINE
  5
43
330
1F
100
AcDbEntity
  8
EBENE_1
 62
     7
100
AcDbSpline
210
0.0
220
0.0
230
1.0
 70
    11
 71
     3
 72
    20
 73
    16
 74
     0
 42
0.0000000001
 43
0.0000000001
 40
0.0
 40
0.0
 40
0.0
 40
0.0
 40
0.25
 40
0.25
 40
0.25
 40
0.25
 40
0.5
 40
0.5
 40
0.5
 40
0.5
 40
0.75
 40
0.75
 40
0.75
 40
0.75
 40
1.0
 40
1.0
 40
1.0
 40
1.0
 10
24.7863
 20
52.7208
 30
0.0
 10
24.7863
 20
52.7208
 30
0.0
 10
19.7863
 20
52.7208
 30
0.0
 10
19.7863
 20
52.7208
 30
0.0
 10
19.7863
 20
52.7208
 30
0.0
 10
19.7863
 20
52.7208
 30
0.0
 10
19.7863
 20
48.7208
 30
0.0
 10
19.7863
 20
48.7208
 30
0.0
 10
19.7863
 20
48.7208
 30
0.0
 10
19.7863
 20
48.7208
 30
0.0
 10
24.7863
 20
48.7208
 30
0.0
 10
24.7863
 20
48.7208
 30
0.0
 10
24.7863
 20
48.7208
 30
0.0
 10
24.7863
 20
48.7208
 30
0.0
 10
24.7863
 20
52.7208
 30
0.0
 10
24.7863
 20
52.7208
 30
0.0
  0
SPLINE
  5
44
330
1F
100
AcDbEntity
  8
EBENE_1
 62
     7
100
AcDbSpline
210
0.0
220
0.0
230
1.0
 70
    11
 71
     3
 72
    20
 73
    16
 74
     0
 42
0.0000000001
 43
0.0000000001
 40
0.0
 40
0.0
 40
0.0
 40
0.0
 40
0.25
 40
0.25
 40
0.25
 40
0.25
 40
0.5
 40
0.5
 40
0.5
 40
0.5
 40
0.75
 40
0.75
 40
0.75
 40
0.75
 40
1.0
 40
1.0
 40
1.0
 40
1.0
 10
34.7863
 20
52.7208
 30
0.0
 10
34.7863
 20
52.7208
 30
0.0
 10
29.7863
 20
52.7208
 30
0.0
 10
29.7863
 20
52.7208
 30
0.0
 10
29.7863
 20
52.7208
 30
0.0
 10
29.7863
 20
52.7208
 30
0.0
 10
29.7863
 20
48.7208
 30
0.0
 10
29.7863
 20
48.7208
 30
0.0
 10
29.7863
 20
48.7208
 30
0.0
 10
29.7863
 20
48.7208
 30
0.0
 10
34.7863
 20
48.7208
 30
0.0
 10
34.7863
 20
48.7208
 30
0.0
 10
34.7863
 20
48.7208
 30
0.0
 10
34.7863
 20
48.7208
 30
0.0
 10
34.7863
 20
52.7208
 30
0.0
 10
34.7863
 20
52.7208
 30
0.0
  0
SPLINE
  5
45
330
1F
100
AcDbEntity
  8
EBENE_1
 62
     7
100
AcDbSpline
210
0.0
220
0.0
230
1.0
 70
    11
 71
     3
 72
    20
 73
    16
 74
     0
 42
0.0000000001
 43
0.0000000001
 40
0.0
 40
0.0
 40
0.0
 40
0.0
 40
0.25
 40
0.25
 40
0.25
 40
0.25
 40
0.5
 40
0.5
 40
0.5
 40
0.5
 40
0.75
 40
0.75
 40
0.75
 40
0.75
 40
1.0
 40
1.0
 40
1.0
 40
1.0
 10
4.786300000000001
 20
60.7208
 30
0.0
 10
4.786300000000001
 20
60.7208
 30
0.0
 10
-0.2137
 20
60.7208
 30
0.0
 10
-0.2137
 20
60.7208
 30
0.0
 10
-0.2137
 20
60.7208
 30
0.0
 10
-0.2137
 20
60.7208
 30
0.0
 10
-0.2137
 20
56.7208
 30
0.0
 10
-0.2137
 20
56.7208
 30
0.0
 10
-0.2137
 20
56.7208
 30
0.0
 10
-0.2137
 20
56.7208
 30
0.0
 10
4.786300000000001
 20
56.7208
 30
0.0
 10
4.786300000000001
 20
56.7208
 30
0.0
 10
4.786300000000001
 20
56.7208
 30
0.0
 10
4.786300000000001
 20
56.7208
 30
0.0
 10
4.786300000000001
 20
60.7208
 30
0.0
 10
4.786300000000001
 20
60.7208
 30
0.0
  0
SPLINE
  5
46
330
1F
100
AcDbEntity
  8
EBENE_1
 62
     7
100
AcDbSpline
210
0.0
220
0.0
230
1.0
 70
    11
 71
     3
 72
    20
 73
    16
 74
     0
 42
0.0000000001
 43
0.0000000001
 40
0.0
 40
0.0
 40
0.0
 40
0.0
 40
0.25
 40
0.25
 40
0.25
 40
0.25
 40
0.5
 40
0.5
 40
0.5
 40
0.5
 40
0.75
 40
0.75
 40
0.75
 40
0.75
 40
1.0
 40
1.0
 40
1.0
 40
1.0
 10
14.7863
 20
60.7208
 30
0.0
 10
14.7863
 20
60.7208
 30
0.0
 10
9.786300000000001
 20
60.7208
 30
0.0
 10
9.786300000000001
 20
60.7208
 30
0.0
 10
9.786300000000001
 20
60.7208
 30
0.0
 10
9.786300000000001
 20
60.7208
 30
0.0
 10
9.786300000000001
 20
56.7208
 30
0.0
 10
9.786300000000001
 20
56.7208
 30
0.0
 10
9.786300000000001
 20
56.7208
 30
0.0
 10
9.786300000000001
 20
56.7208
 30
0.0
 10
14.7863
 20
56.7208
 30
0.0
 10
14.7863
 20
56.7208
 30
0.0
 10
14.7863
 20
56.7208
 30
0.0
 10
14.7863
 20
56.7208
 30
0.0
 10
14.7863
 20
60.7208
 30
0.0
 10
14.7863
 20
60.7208
 30
0.0
  0
SPLINE
  5
47
330
1F
100
AcDbEntity
  8
EBENE_1
 62
     7
100
AcDbSpline
210
0.0
220
0.0
230
1.0
 70
    11
 71
     3
 72
    20
 73
    16
 74
     0
 42
0.0000000001
 43
0.0000000001
 40
0.0
 40
0.0
 40
0.0
 40
0.0
 40
0.25
 40
0.25
 40
0.25
 40
0.25
 40
0.5
 40
0.5
 40
0.5
 40
0.5
 40
0.75
 40
0.75
 40
0.75
 40
0.75
 40
1.0
 40
1.0
 40
1.0
 40
1.0
 10
24.7863
 20
60.7208
 30
0.0
 10
24.7863
 20
60.7208
 30
0.0
 10
19.7863
 20
60.7208
 30
0.0
 10
19.7863
 20
60.7208
 30
0.0
 10
19.7863
 20
60.7208
 30
0.0
 10
19.7863
 20
60.7208
 30
0.0
 10
19.7863
 20
56.7208
 30
0.0
 10
19.7863
 20
56.7208
 30
0.0
 10
19.7863
 20
56.7208
 30
0.0
 10
19.7863
 20
56.7208
 30
0.0
 10
24.7863
 20
56.7208
 30
0.0
 10
24.7863
 20
56.7208
 30
0.0
 10
24.7863
 20
56.7208
 30
0.0
 10
24.7863
 20
56.7208
 30
0.0
 10
24.7863
 20
60.7208
 30
0.0
 10
24.7863
 20
60.7208
 30
0.0
  0
SPLINE
  5
48
330
1F
100
AcDbEntity
  8
EBENE_1
 62
     7
100
AcDbSpline
210
0.0
220
0.0
230
1.0
 70
    11
 71
     3
 72
    20
 73
    16
 74
     0
 42
0.0000000001
 43
0.0000000001
 40
0.0
 40
0.0
 40
0.0
 40
0.0
 40
0.25
 40
0.25
 40
0.25
 40
0.25
 40
0.5
 40
0.5
 40
0.5
 40
0.5
 40
0.75
 40
0.75
 40
0.75
 40
0.75
 40
1.0
 40
1.0
 40
1.0
 40
1.0
 10
34.7863
 20
60.7208
 30
0.0
 10
34.7863
 20
60.7208
 30
0.0
 10
29.7863
 20
60.7208
 30
0.0
 10
29.7863
 20
60.7208
 30
0.0
 10
29.7863
 20
60.7208
 30
0.0
 10
29.7863
 20
60.7208
 30
0.0
 10
29.7863
 20
56.7208
 30
0.0
 10
29.7863
 20
56.7208
 30
0.0
 10
29.7863
 20
56.7208
 30
0.0
 10
29.7863
 20
56.7208
 30
0.0
 10
34.7863
 20
56.7208
 30
0.0
 10
34.7863
 20
56.7208
 30
0.0
 10
34.7863
 20
56.7208
 30
0.0
 10
34.7863
 20
56.7208
 30
0.0
 10
34.7863
 20
60.7208
 30
0.0
 10
34.7863
 20
60.7208
 30
0.0
  0
SPLINE
  5
49
330
1F
100
AcDbEntity
  8
EBENE_1
 62
     7
100
AcDbSpline
210
0.0
220
0.0
230
1.0
 70
    11
 71
     3
 72
    20
 73
    16
 74
     0
 42
0.0000000001
 43
0.0000000001
 40
0.0
 40
0.0
 40
0.0
 40
0.0
 40
0.25
 40
0.25
 40
0.25
 40
0.25
 40
0.5
 40
0.5
 40
0.5
 40
0.5
 40
0.75
 40
0.75
 40
0.75
 40
0.75
 40
1.0
 40
1.0
 40
1.0
 40
1.0
 10
4.786300000000001
 20
-112.6911
 30
0.0
 10
4.786300000000001
 20
-112.6911
 30
0.0
 10
-0.2137
 20
-112.6911
 30
0.0
 10
-0.2137
 20
-112.6911
 30
0.0
 10
-0.2137
 20
-112.6911
 30
0.0
 10
-0.2137
 20
-112.6911
 30
0.0
 10
-0.2137
 20
-108.6911
 30
0.0
 10
-0.2137
 20
-108.6911
 30
0.0
 10
-0.2137
 20
-108.6911
 30
0.0
 10
-0.2137
 20
-108.6911
 30
0.0
 10
4.786300000000001
 20
-108.6911
 30
0.0
 10
4.786300000000001
 20
-108.6911
 30
0.0
 10
4.786300000000001
 20
-108.6911
 30
0.0
 10
4.786300000000001
 20
-108.6911
 30
0.0
 10
4.786300000000001
 20
-112.6911
 30
0.0
 10
4.786300000000001
 20
-112.6911
 30
0.0
  0
SPLINE
  5
4A
330
1F
100
AcDbEntity
  8
EBENE_1
 62
     7
100
AcDbSpline
210
0.0
220
0.0
230
1.0
 70
    11
 71
     3
 72
    20
 73
    16
 74
     0
 42
0.0000000001
 43
0.0000000001
 40
0.0
 40
0.0
 40
0.0
 40
0.0
 40
0.25
 40
0.25
 40
0.25
 40
0.25
 40
0.5
 40
0.5
 40
0.5
 40
0.5
 40
0.75
 40
0.75
 40
0.75
 40
0.75
 40
1.0
 40
1.0
 40
1.0
 40
1.0
 10
14.7863
 20
-112.6911
 30
0.0
 10
14.7863
 20
-112.6911
 30
0.0
 10
9.786300000000001
 20
-112.6911
 30
0.0
 10
9.786300000000001
 20
-112.6911
 30
0.0
 10
9.786300000000001
 20
-112.6911
 30
0.0
 10
9.786300000000001
 20
-112.6911
 30
0.0
 10
9.786300000000001
 20
-108.6911
 30
0.0
 10
9.786300000000001
 20
-108.6911
 30
0.0
 10
9.786300000000001
 20
-108.6911
 30
0.0
 10
9.786300000000001
 20
-108.6911
 30
0.0
 10
14.7863
 20
-108.6911
 30
0.0
 10
14.7863
 20
-108.6911
 30
0.0
 10
14.7863
 20
-108.6911
 30
0.0
 10
14.7863
 20
-108.6911
 30
0.0
 10
14.7863
 20
-112.6911
 30
0.0
 10
14.7863
 20
-112.6911
 30
0.0
  0
SPLINE
  5
4B
330
1F
100
AcDbEntity
  8
EBENE_1
 62
     7
100
AcDbSpline
210
0.0
220
0.0
230
1.0
 70
    11
 71
     3
 72
    20
 73
    16
 74
     0
 42
0.0000000001
 43
0.0000000001
 40
0.0
 40
0.0
 40
0.0
 40
0.0
 40
0.25
 40
0.25
 40
0.25
 40
0.25
 40
0.5
 40
0.5
 40
0.5
 40
0.5
 40
0.75
 40
0.75
 40
0.75
 40
0.75
 40
1.0
 40
1.0
 40
1.0
 40
1.0
 10
24.7863
 20
-112.6911
 30
0.0
 10
24.7863
 20
-112.6911
 30
0.0
 10
19.7863
 20
-112.6911
 30
0.0
 10
19.7863
 20
-112.6911
 30
0.0
 10
19.7863
 20
-112.6911
 30
0.0
 10
19.7863
 20
-112.6911
 30
0.0
 10
19.7863
 20
-108.6911
 30
0.0
 10
19.7863
 20
-108.6911
 30
0.0
 10
19.7863
 20
-108.6911
 30
0.0
 10
19.7863
 20
-108.6911
 30
0.0
 10
24.7863
 20
-108.6911
 30
0.0
 10
24.7863
 20
-108.6911
 30
0.0
 10
24.7863
 20
-108.6911
 30
0.0
 10
24.7863
 20
-108.6911
 30
0.0
 10
24.7863
 20
-112.6911
 30
0.0
 10
24.7863
 20
-112.6911
 30
0.0
  0
SPLINE
  5
4C
330
1F
100
AcDbEntity
  8
EBENE_1
 62
     7
100
AcDbSpline
210
0.0
220
0.0
230
1.0
 70
    11
 71
     3
 72
    20
 73
    16
 74
     0
 42
0.0000000001
 43
0.0000000001
 40
0.0
 40
0.0
 40
0.0
 40
0.0
 40
0.25
 40
0.25
 40
0.25
 40
0.25
 40
0.5
 40
0.5
 40
0.5
 40
0.5
 40
0.75
 40
0.75
 40
0.75
 40
0.75
 40
1.0
 40
1.0
 40
1.0
 40
1.0
 10
34.7863
 20
-112.6911
 30
0.0
 10
34.7863
 20
-112.6911
 30
0.0
 10
29.7863
 20
-112.6911
 30
0.0
 10
29.7863
 20
-112.6911
 30
0.0
 10
29.7863
 20
-112.6911
 30
0.0
 10
29.7863
 20
-112.6911
 30
0.0
 10
29.7863
 20
-108.6911
 30
0.0
 10
29.7863
 20
-108.6911
 30
0.0
 10
29.7863
 20
-108.6911
 30
0.0
 10
29.7863
 20
-108.6911
 30
0.0
 10
34.7863
 20
-108.6911
 30
0.0
 10
34.7863
 20
-108.6911
 30
0.0
 10
34.7863
 20
-108.6911
 30
0.0
 10
34.7863
 20
-108.6911
 30
0.0
 10
34.7863
 20
-112.6911
 30
0.0
 10
34.7863
 20
-112.6911
 30
0.0
  0
SPLINE
  5
4D
330
1F
100
AcDbEntity
  8
EBENE_1
 62
     7
100
AcDbSpline
210
0.0
220
0.0
230
1.0
 70
    11
 71
     3
 72
    20
 73
    16
 74
     0
 42
0.0000000001
 43
0.0000000001
 40
0.0
 40
0.0
 40
0.0
 40
0.0
 40
0.25
 40
0.25
 40
0.25
 40
0.25
 40
0.5
 40
0.5
 40
0.5
 40
0.5
 40
0.75
 40
0.75
 40
0.75
 40
0.75
 40
1.0
 40
1.0
 40
1.0
 40
1.0
 10
4.786300000000001
 20
-120.6911
 30
0.0
 10
4.786300000000001
 20
-120.6911
 30
0.0
 10
-0.2137
 20
-120.6911
 30
0.0
 10
-0.2137
 20
-120.6911
 30
0.0
 10
-0.2137
 20
-120.6911
 30
0.0
 10
-0.2137
 20
-120.6911
 30
0.0
 10
-0.2137
 20
-116.6911
 30
0.0
 10
-0.2137
 20
-116.6911
 30
0.0
 10
-0.2137
 20
-116.6911
 30
0.0
 10
-0.2137
 20
-116.6911
 30
0.0
 10
4.786300000000001
 20
-116.6911
 30
0.0
 10
4.786300000000001
 20
-116.6911
 30
0.0
 10
4.786300000000001
 20
-116.6911
 30
0.0
 10
4.786300000000001
 20
-116.6911
 30
0.0
 10
4.786300000000001
 20
-120.6911
 30
0.0
 10
4.786300000000001
 20
-120.6911
 30
0.0
  0
SPLINE
  5
4E
330
1F
100
AcDbEntity
  8
EBENE_1
 62
     7
100
AcDbSpline
210
0.0
220
0.0
230
1.0
 70
    11
 71
     3
 72
    20
 73
    16
 74
     0
 42
0.0000000001
 43
0.0000000001
 40
0.0
 40
0.0
 40
0.0
 40
0.0
 40
0.25
 40
0.25
 40
0.25
 40
0.25
 40
0.5
 40
0.5
 40
0.5
 40
0.5
 40
0.75
 40
0.75
 40
0.75
 40
0.75
 40
1.0
 40
1.0
 40
1.0
 40
1.0
 10
14.7863
 20
-120.6911
 30
0.0
 10
14.7863
 20
-120.6911
 30
0.0
 10
9.786300000000001
 20
-120.6911
 30
0.0
 10
9.786300000000001
 20
-120.6911
 30
0.0
 10
9.786300000000001
 20
-120.6911
 30
0.0
 10
9.786300000000001
 20
-120.6911
 30
0.0
 10
9.786300000000001
 20
-116.6911
 30
0.0
 10
9.786300000000001
 20
-116.6911
 30
0.0
 10
9.786300000000001
 20
-116.6911
 30
0.0
 10
9.786300000000001
 20
-116.6911
 30
0.0
 10
14.7863
 20
-116.6911
 30
0.0
 10
14.7863
 20
-116.6911
 30
0.0
 10
14.7863
 20
-116.6911
 30
0.0
 10
14.7863
 20
-116.6911
 30
0.0
 10
14.7863
 20
-120.6911
 30
0.0
 10
14.7863
 20
-120.6911
 30
0.0
  0
SPLINE
  5
4F
330
1F
100
AcDbEntity
  8
EBENE_1
 62
     7
100
AcDbSpline
210
0.0
220
0.0
230
1.0
 70
    11
 71
     3
 72
    20
 73
    16
 74
     0
 42
0.0000000001
 43
0.0000000001
 40
0.0
 40
0.0
 40
0.0
 40
0.0
 40
0.25
 40
0.25
 40
0.25
 40
0.25
 40
0.5
 40
0.5
 40
0.5
 40
0.5
 40
0.75
 40
0.75
 40
0.75
 40
0.75
 40
1.0
 40
1.0
 40
1.0
 40
1.0
 10
24.7863
 20
-120.6911
 30
0.0
 10
24.7863
 20
-120.6911
 30
0.0
 10
19.7863
 20
-120.6911
 30
0.0
 10
19.7863
 20
-120.6911
 30
0.0
 10
19.7863
 20
-120.6911
 30
0.0
 10
19.7863
 20
-120.6911
 30
0.0
 10
19.7863
 20
-116.6911
 30
0.0
 10
19.7863
 20
-116.6911
 30
0.0
 10
19.7863
 20
-116.6911
 30
0.0
 10
19.7863
 20
-116.6911
 30
0.0
 10
24.7863
 20
-116.6911
 30
0.0
 10
24.7863
 20
-116.6911
 30
0.0
 10
24.7863
 20
-116.6911
 30
0.0
 10
24.7863
 20
-116.6911
 30
0.0
 10
24.7863
 20
-120.6911
 30
0.0
 10
24.7863
 20
-120.6911
 30
0.0
  0
SPLINE
  5
50
330
1F
100
AcDbEntity
  8
EBENE_1
 62
     7
100
AcDbSpline
210
0.0
220
0.0
230
1.0
 70
    11
 71
     3
 72
    20
 73
    16
 74
     0
 42
0.0000000001
 43
0.0000000001
 40
0.0
 40
0.0
 40
0.0
 40
0.0
 40
0.25
 40
0.25
 40
0.25
 40
0.25
 40
0.5
 40
0.5
 40
0.5
 40
0.5
 40
0.75
 40
0.75
 40
0.75
 40
0.75
 40
1.0
 40
1.0
 40
1.0
 40
1.0
 10
34.7863
 20
-120.6911
 30
0.0
 10
34.7863
 20
-120.6911
 30
0.0
 10
29.7863
 20
-120.6911
 30
0.0
 10
29.7863
 20
-120.6911
 30
0.0
 10
29.7863
 20
-120.6911
 30
0.0
 10
29.7863
 20
-120.6911
 30
0.0
 10
29.7863
 20
-116.6911
 30
0.0
 10
29.7863
 20
-116.6911
 30
0.0
 10
29.7863
 20
-116.6911
 30
0.0
 10
29.7863
 20
-116.6911
 30
0.0
 10
34.7863
 20
-116.6911
 30
0.0
 10
34.7863
 20
-116.6911
 30
0.0
 10
34.7863
 20
-116.6911
 30
0.0
 10
34.7863
 20
-116.6911
 30
0.0
 10
34.7863
 20
-120.6911
 30
0.0
 10
34.7863
 20
-120.6911
 30
0.0
  0
POLYLINE
  5
51
330
1F
100
AcDbEntity
  8
EBENE_1
100
AcDb2dPolyline
 66
     1
 10
0.0
 20
0.0
 30
0.0
 70
     1
  0
VERTEX
  5
67
330
51
100
AcDbEntity
  8
EBENE_1
100
AcDbVertex
100
AcDb2dVertex
 10
57.825
 20
-76.62090000000001
 30
0.0
  0
VERTEX
  5
68
330
51
100
AcDbEntity
  8
EBENE_1
100
AcDbVertex
100
AcDb2dVertex
 10
69.825
 20
-76.62090000000001
 30
0.0
  0
VERTEX
  5
69
330
51
100
AcDbEntity
  8
EBENE_1
100
AcDbVertex
100
AcDb2dVertex
 10
69.825
 20
17.6915
 30
0.0
  0
VERTEX
  5
6A
330
51
100
AcDbEntity
  8
EBENE_1
100
AcDbVertex
100
AcDb2dVertex
 10
57.825
 20
17.6915
 30
0.0
  0
VERTEX
  5
6B
330
51
100
AcDbEntity
  8
EBENE_1
100
AcDbVertex
100
AcDb2dVertex
 10
57.825
 20
-76.62090000000001
 30
0.0
  0
SEQEND
  5
66
330
51
100
AcDbEntity
  8
EBENE_1
  0
SPLINE
  5
52
330
1F
100
AcDbEntity
  8
EBENE_1
100
AcDbSpline
210
0.0
220
0.0
230
1.0
 70
    11
 71
     3
 72
   116
 73
   112
 74
     0
 42
0.0000000001
 43
0.0000000001
 40
0.0
 40
0.0
 40
0.0
 40
0.0
 40
0.0357142857142857
 40
0.0357142857142857
 40
0.0357142857142857
 40
0.0357142857142857
 40
0.0714285714285714
 40
0.0714285714285714
 40
0.0714285714285714
 40
0.0714285714285714
 40
0.1071428571428571
 40
0.1071428571428571
 40
0.1071428571428571
 40
0.1071428571428571
 40
0.1428571428571429
 40
0.1428571428571429
 40
0.1428571428571429
 40
0.1428571428571429
 40
0.1785714285714286
 40
0.1785714285714286
 40
0.1785714285714286
 40
0.1785714285714286
 40
0.2142857142857143
 40
0.2142857142857143
 40
0.2142857142857143
 40
0.2142857142857143
 40
0.2499999999999999
 40
0.2499999999999999
 40
0.2499999999999999
 40
0.2499999999999999
 40
0.2857142857142856
 40
0.2857142857142856
 40
0.2857142857142856
 40
0.2857142857142856
 40
0.3214285714285713
 40
0.3214285714285713
 40
0.3214285714285713
 40
0.3214285714285713
 40
0.357142857142857
 40
0.357142857142857
 40
0.357142857142857
 40
0.357142857142857
 40
0.3928571428571427
 40
0.3928571428571427
 40
0.3928571428571427
 40
0.3928571428571427
 40
0.4285714285714284
 40
0.4285714285714284
 40
0.4285714285714284
 40
0.4285714285714284
 40
0.4642857142857141
 40
0.4642857142857141
 40
0.4642857142857141
 40
0.4642857142857141
 40
0.4999999999999998
 40
0.4999999999999998
 40
0.4999999999999998
 40
0.4999999999999998
 40
0.5357142857142856
 40
0.5357142857142856
 40
0.5357142857142856
 40
0.5357142857142856
 40
0.5714285714285713
 40
0.5714285714285713
 40
0.5714285714285713
 40
0.5714285714285713
 40
0.607142857142857
 40
0.607142857142857
 40
0.607142857142857
 40
0.607142857142857
 40
0.6428571428571427
 40
0.6428571428571427
 40
0.6428571428571427
 40
0.6428571428571427
 40
0.6785714285714284
 40
0.6785714285714284
 40
0.6785714285714284
 40
0.6785714285714284
 40
0.7142857142857141
 40
0.7142857142857141
 40
0.7142857142857141
 40
0.7142857142857141
 40
0.7499999999999998
 40
0.7499999999999998
 40
0.7499999999999998
 40
0.7499999999999998
 40
0.7857142857142855
 40
0.7857142857142855
 40
0.7857142857142855
 40
0.7857142857142855
 40
0.8214285714285712
 40
0.8214285714285712
 40
0.8214285714285712
 40
0.8214285714285712
 40
0.8571428571428569
 40
0.8571428571428569
 40
0.8571428571428569
 40
0.8571428571428569
 40
0.8928571428571426
 40
0.8928571428571426
 40
0.8928571428571426
 40
0.8928571428571426
 40
0.9285714285714283
 40
0.9285714285714283
 40
0.9285714285714283
 40
0.9285714285714283
 40
0.964285714285714
 40
0.964285714285714
 40
0.964285714285714
 40
0.964285714285714
 40
1.0
 40
1.0
 40
1.0
 40
1.0
 10
-22.0053
 20
-77.8233
 30
0.0
 10
-22.0053
 20
-77.8233
 30
0.0
 10
-26.782
 20
-77.8233
 30
0.0
 10
-26.782
 20
-77.8233
 30
0.0
 10
-26.782
 20
-77.8233
 30
0.0
 10
-26.782
 20
-77.8233
 30
0.0
 10
-26.782
 20
-81.80340000000001
 30
0.0
 10
-26.782
 20
-81.80340000000001
 30
0.0
 10
-26.782
 20
-81.80340000000001
 30
0.0
 10
-26.782
 20
-81.80340000000001
 30
0.0
 10
-32.282
 20
-81.80340000000001
 30
0.0
 10
-32.282
 20
-81.80340000000001
 30
0.0
 10
-32.282
 20
-81.80340000000001
 30
0.0
 10
-32.282
 20
-81.80340000000001
 30
0.0
 10
-32.282
 20
-77.8233
 30
0.0
 10
-32.282
 20
-77.8233
 30
0.0
 10
-32.282
 20
-77.8233
 30
0.0
 10
-32.282
 20
-77.8233
 30
0.0
 10
-37.782
 20
-77.8233
 30
0.0
 10
-37.782
 20
-77.8233
 30
0.0
 10
-37.782
 20
-77.8233
 30
0.0
 10
-37.782
 20
-77.8233
 30
0.0
 10
-37.782
 20
-81.80330000000001
 30
0.0
 10
-37.782
 20
-81.80330000000001
 30
0.0
 10
-37.782
 20
-81.80330000000001
 30
0.0
 10
-37.782
 20
-81.80330000000001
 30
0.0
 10
-43.282
 20
-81.80330000000001
 30
0.0
 10
-43.282
 20
-81.80330000000001
 30
0.0
 10
-43.282
 20
-81.80330000000001
 30
0.0
 10
-43.282
 20
-81.80330000000001
 30
0.0
 10
-43.282
 20
-77.8233
 30
0.0
 10
-43.282
 20
-77.8233
 30
0.0
 10
-43.282
 20
-77.8233
 30
0.0
 10
-43.282
 20
-77.8233
 30
0.0
 10
-48.1814
 20
-77.8233
 30
0.0
 10
-48.1814
 20
-77.8233
 30
0.0
 10
-48.1814
 20
-77.8233
 30
0.0
 10
-48.1814
 20
-77.8233
 30
0.0
 10
-48.1814
 20
-63.7563
 30
0.0
 10
-48.1814
 20
-63.7563
 30
0.0
 10
-48.1814
 20
-63.7563
 30
0.0
 10
-48.1814
 20
-63.7563
 30
0.0
 10
-51.9472
 20
-63.7563
 30
0.0
 10
-51.9472
 20
-63.7563
 30
0.0
 10
-51.9472
 20
-63.7563
 30
0.0
 10
-51.9472
 20
-63.7563
 30
0.0
 10
-51.9472
 20
-58.2563
 30
0.0
 10
-51.9472
 20
-58.2563
 30
0.0
 10
-51.9472
 20
-58.2563
 30
0.0
 10
-51.9472
 20
-58.2563
 30
0.0
 10
-48.1814
 20
-58.2563
 30
0.0
 10
-48.1814
 20
-58.2563
 30
0.0
 10
-48.1814
 20
-58.2563
 30
0.0
 10
-48.1814
 20
-58.2563
 30
0.0
 10
-48.1814
 20
37.66390000000001
 30
0.0
 10
-48.1814
 20
37.66390000000001
 30
0.0
 10
-48.1814
 20
37.66390000000001
 30
0.0
 10
-48.1814
 20
37.66390000000001
 30
0.0
 10
-51.9472
 20
37.66390000000001
 30
0.0
 10
-51.9472
 20
37.66390000000001
 30
0.0
 10
-51.9472
 20
37.66390000000001
 30
0.0
 10
-51.9472
 20
37.66390000000001
 30
0.0
 10
-51.9472
 20
43.16390000000001
 30
0.0
 10
-51.9472
 20
43.16390000000001
 30
0.0
 10
-51.9472
 20
43.16390000000001
 30
0.0
 10
-51.9472
 20
43.16390000000001
 30
0.0
 10
-48.1814
 20
43.16390000000001
 30
0.0
 10
-48.1814
 20
43.16390000000001
 30
0.0
 10
-48.1814
 20
43.16390000000001
 30
0.0
 10
-48.1814
 20
43.16390000000001
 30
0.0
 10
-48.1814
 20
57.18250000000001
 30
0.0
 10
-48.1814
 20
57.18250000000001
 30
0.0
 10
-48.1814
 20
57.18250000000001
 30
0.0
 10
-48.1814
 20
57.18250000000001
 30
0.0
 10
-43.7415
 20
57.18250000000001
 30
0.0
 10
-43.7415
 20
57.18250000000001
 30
0.0
 10
-43.7415
 20
57.18250000000001
 30
0.0
 10
-43.7415
 20
57.18250000000001
 30
0.0
 10
-43.7415
 20
61.01620000000001
 30
0.0
 10
-43.7415
 20
61.01620000000001
 30
0.0
 10
-43.7415
 20
61.01620000000001
 30
0.0
 10
-43.7415
 20
61.01620000000001
 30
0.0
 10
-38.2415
 20
61.01620000000001
 30
0.0
 10
-38.2415
 20
61.01620000000001
 30
0.0
 10
-38.2415
 20
61.01620000000001
 30
0.0
 10
-38.2415
 20
61.01620000000001
 30
0.0
 10
-38.2415
 20
57.18250000000001
 30
0.0
 10
-38.2415
 20
57.18250000000001
 30
0.0
 10
-38.2415
 20
57.18250000000001
 30
0.0
 10
-38.2415
 20
57.18250000000001
 30
0.0
 10
-32.7415
 20
57.18250000000001
 30
0.0
 10
-32.7415
 20
57.18250000000001
 30
0.0
 10
-32.7415
 20
57.18250000000001
 30
0.0
 10
-32.7415
 20
57.18250000000001
 30
0.0
 10
-32.7415
 20
61.01620000000001
 30
0.0
 10
-32.7415
 20
61.01620000000001
 30
0.0
 10
-32.7415
 20
61.01620000000001
 30
0.0
 10
-32.7415
 20
61.01620000000001
 30
0.0
 10
-27.2415
 20
61.01620000000001
 30
0.0
 10
-27.2415
 20
61.01620000000001
 30
0.0
 10
-27.2415
 20
61.01620000000001
 30
0.0
 10
-27.2415
 20
61.01620000000001
 30
0.0
 10
-27.2415
 20
57.1826
 30
0.0
 10
-27.2415
 20
57.1826
 30
0.0
 10
-27.2415
 20
57.1826
 30
0.0
 10
-27.2415
 20
57.1826
 30
0.0
 10
-22.0053
 20
57.1826
 30
0.0
 10
-22.0053
 20
57.1826
 30
0.0
 10
-22.0053
 20
57.1826
 30
0.0
 10
-22.0053
 20
57.1826
 30
0.0
 10
-22.0053
 20
-77.8233
 30
0.0
 10
-22.0053
 20
-77.8233
 30
0.0
  0
SPLINE
  5
53
330
1F
100
AcDbEntity
  8
EBENE_1
100
AcDbSpline
210
0.0
220
0.0
230
1.0
 70
    11
 71
     3
 72
    84
 73
    80
 74
     0
 42
0.0000000001
 43
0.0000000001
 40
0.0
 40
0.0
 40
0.0
 40
0.0
 40
0.05
 40
0.05
 40
0.05
 40
0.05
 40
0.1
 40
0.1
 40
0.1
 40
0.1
 40
0.15
 40
0.15
 40
0.15
 40
0.15
 40
0.2
 40
0.2
 40
0.2
 40
0.2
 40
0.25
 40
0.25
 40
0.25
 40
0.25
 40
0.3
 40
0.3
 40
0.3
 40
0.3
 40
0.35
 40
0.35
 40
0.35
 40
0.35
 40
0.4
 40
0.4
 40
0.4
 40
0.4
 40
0.45
 40
0.45
 40
0.45
 40
0.45
 40
0.4999999999999999
 40
0.4999999999999999
 40
0.4999999999999999
 40
0.4999999999999999
 40
0.5499999999999999
 40
0.5499999999999999
 40
0.5499999999999999
 40
0.5499999999999999
 40
0.6
 40
0.6
 40
0.6
 40
0.6
 40
0.65
 40
0.65
 40
0.65
 40
0.65
 40
0.7000000000000001
 40
0.7000000000000001
 40
0.7000000000000001
 40
0.7000000000000001
 40
0.7500000000000001
 40
0.7500000000000001
 40
0.7500000000000001
 40
0.7500000000000001
 40
0.8000000000000002
 40
0.8000000000000002
 40
0.8000000000000002
 40
0.8000000000000002
 40
0.8500000000000002
 40
0.8500000000000002
 40
0.8500000000000002
 40
0.8500000000000002
 40
0.9000000000000002
 40
0.9000000000000002
 40
0.9000000000000002
 40
0.9000000000000002
 40
0.9500000000000003
 40
0.9500000000000003
 40
0.9500000000000003
 40
0.9500000000000003
 40
1.0
 40
1.0
 40
1.0
 40
1.0
 10
-291.2645
 20
8.4153
 30
0.0
 10
-291.2645
 20
8.4153
 30
0.0
 10
-110.8603
 20
8.4153
 30
0.0
 10
-110.8603
 20
8.4153
 30
0.0
 10
-110.8603
 20
8.4153
 30
0.0
 10
-110.8603
 20
8.4153
 30
0.0
 10
-110.8603
 20
13.2766
 30
0.0
 10
-110.8603
 20
13.2766
 30
0.0
 10
-110.8603
 20
13.2766
 30
0.0
 10
-110.8603
 20
13.2766
 30
0.0
 10
-114.7571
 20
13.2766
 30
0.0
 10
-114.7571
 20
13.2766
 30
0.0
 10
-114.7571
 20
13.2766
 30
0.0
 10
-114.7571
 20
13.2766
 30
0.0
 10
-114.7571
 20
18.7766
 30
0.0
 10
-114.7571
 20
18.7766
 30
0.0
 10
-114.7571
 20
18.7766
 30
0.0
 10
-114.7571
 20
18.7766
 30
0.0
 10
-110.8603
 20
18.7766
 30
0.0
 10
-110.8603
 20
18.7766
 30
0.0
 10
-110.8603
 20
18.7766
 30
0.0
 10
-110.8603
 20
18.7766
 30
0.0
 10
-110.8603
 20
24.2766
 30
0.0
 10
-110.8603
 20
24.2766
 30
0.0
 10
-110.8603
 20
24.2766
 30
0.0
 10
-110.8603
 20
24.2766
 30
0.0
 10
-114.7572
 20
24.2766
 30
0.0
 10
-114.7572
 20
24.2766
 30
0.0
 10
-114.7572
 20
24.2766
 30
0.0
 10
-114.7572
 20
24.2766
 30
0.0
 10
-114.7572
 20
29.7766
 30
0.0
 10
-114.7572
 20
29.7766
 30
0.0
 10
-114.7572
 20
29.7766
 30
0.0
 10
-114.7572
 20
29.7766
 30
0.0
 10
-110.8603
 20
29.7766
 30
0.0
 10
-110.8603
 20
29.7766
 30
0.0
 10
-110.8603
 20
29.7766
 30
0.0
 10
-110.8603
 20
29.7766
 30
0.0
 10
-110.8603
 20
34.5914
 30
0.0
 10
-110.8603
 20
34.5914
 30
0.0
 10
-110.8603
 20
34.5914
 30
0.0
 10
-110.8603
 20
34.5914
 30
0.0
 10
-291.2645
 20
34.5914
 30
0.0
 10
-291.2645
 20
34.5914
 30
0.0
 10
-291.2645
 20
34.5914
 30
0.0
 10
-291.2645
 20
34.5914
 30
0.0
 10
-291.2645
 20
29.7766
 30
0.0
 10
-291.2645
 20
29.7766
 30
0.0
 10
-291.2645
 20
29.7766
 30
0.0
 10
-291.2645
 20
29.7766
 30
0.0
 10
-287.3389
 20
29.7766
 30
0.0
 10
-287.3389
 20
29.7766
 30
0.0
 10
-287.3389
 20
29.7766
 30
0.0
 10
-287.3389
 20
29.7766
 30
0.0
 10
-287.3389
 20
24.2766
 30
0.0
 10
-287.3389
 20
24.2766
 30
0.0
 10
-287.3389
 20
24.2766
 30
0.0
 10
-287.3389
 20
24.2766
 30
0.0
 10
-291.2645
 20
24.2766
 30
0.0
 10
-291.2645
 20
24.2766
 30
0.0
 10
-291.2645
 20
24.2766
 30
0.0
 10
-291.2645
 20
24.2766
 30
0.0
 10
-291.2645
 20
18.7766
 30
0.0
 10
-291.2645
 20
18.7766
 30
0.0
 10
-291.2645
 20
18.7766
 30
0.0
 10
-291.2645
 20
18.7766
 30
0.0
 10
-287.339
 20
18.7766
 30
0.0
 10
-287.339
 20
18.7766
 30
0.0
 10
-287.339
 20
18.7766
 30
0.0
 10
-287.339
 20
18.7766
 30
0.0
 10
-287.339
 20
13.2766
 30
0.0
 10
-287.339
 20
13.2766
 30
0.0
 10
-287.339
 20
13.2766
 30
0.0
 10
-287.339
 20
13.2766
 30
0.0
 10
-291.2645
 20
13.2766
 30
0.0
 10
-291.2645
 20
13.2766
 30
0.0
 10
-291.2645
 20
13.2766
 30
0.0
 10
-291.2645
 20
13.2766
 30
0.0
 10
-291.2645
 20
8.4153
 30
0.0
 10
-291.2645
 20
8.4153
 30
0.0
  0
SPLINE
  5
54
330
1F
100
AcDbEntity
  8
EBENE_1
 62
     7
100
AcDbSpline
210
0.0
220
0.0
230
1.0
 70
    11
 71
     3
 72
    84
 73
    80
 74
     0
 42
0.0000000001
 43
0.0000000001
 40
0.0
 40
0.0
 40
0.0
 40
0.0
 40
0.05
 40
0.05
 40
0.05
 40
0.05
 40
0.1
 40
0.1
 40
0.1
 40
0.1
 40
0.15
 40
0.15
 40
0.15
 40
0.15
 40
0.2
 40
0.2
 40
0.2
 40
0.2
 40
0.25
 40
0.25
 40
0.25
 40
0.25
 40
0.3
 40
0.3
 40
0.3
 40
0.3
 40
0.35
 40
0.35
 40
0.35
 40
0.35
 40
0.4
 40
0.4
 40
0.4
 40
0.4
 40
0.45
 40
0.45
 40
0.45
 40
0.45
 40
0.4999999999999999
 40
0.4999999999999999
 40
0.4999999999999999
 40
0.4999999999999999
 40
0.5499999999999999
 40
0.5499999999999999
 40
0.5499999999999999
 40
0.5499999999999999
 40
0.6
 40
0.6
 40
0.6
 40
0.6
 40
0.65
 40
0.65
 40
0.65
 40
0.65
 40
0.7000000000000001
 40
0.7000000000000001
 40
0.7000000000000001
 40
0.7000000000000001
 40
0.7500000000000001
 40
0.7500000000000001
 40
0.7500000000000001
 40
0.7500000000000001
 40
0.8000000000000002
 40
0.8000000000000002
 40
0.8000000000000002
 40
0.8000000000000002
 40
0.8500000000000002
 40
0.8500000000000002
 40
0.8500000000000002
 40
0.8500000000000002
 40
0.9000000000000002
 40
0.9000000000000002
 40
0.9000000000000002
 40
0.9000000000000002
 40
0.9500000000000003
 40
0.9500000000000003
 40
0.9500000000000003
 40
0.9500000000000003
 40
1.0
 40
1.0
 40
1.0
 40
1.0
 10
-111.6833
 20
42.74500000000001
 30
0.0
 10
-111.6833
 20
42.74500000000001
 30
0.0
 10
-111.6833
 20
60.6693
 30
0.0
 10
-111.6833
 20
60.6693
 30
0.0
 10
-111.6833
 20
60.6693
 30
0.0
 10
-111.6833
 20
60.6693
 30
0.0
 10
-115.2878
 20
60.6693
 30
0.0
 10
-115.2878
 20
60.6693
 30
0.0
 10
-115.2878
 20
60.6693
 30
0.0
 10
-115.2878
 20
60.6693
 30
0.0
 10
-115.2878
 20
66.16930000000001
 30
0.0
 10
-115.2878
 20
66.16930000000001
 30
0.0
 10
-115.2878
 20
66.16930000000001
 30
0.0
 10
-115.2878
 20
66.16930000000001
 30
0.0
 10
-111.6833
 20
66.16930000000001
 30
0.0
 10
-111.6833
 20
66.16930000000001
 30
0.0
 10
-111.6833
 20
66.16930000000001
 30
0.0
 10
-111.6833
 20
66.16930000000001
 30
0.0
 10
-111.6833
 20
162.0895
 30
0.0
 10
-111.6833
 20
162.0895
 30
0.0
 10
-111.6833
 20
162.0895
 30
0.0
 10
-111.6833
 20
162.0895
 30
0.0
 10
-115.2878
 20
162.0895
 30
0.0
 10
-115.2878
 20
162.0895
 30
0.0
 10
-115.2878
 20
162.0895
 30
0.0
 10
-115.2878
 20
162.0895
 30
0.0
 10
-115.2878
 20
167.5895
 30
0.0
 10
-115.2878
 20
167.5895
 30
0.0
 10
-115.2878
 20
167.5895
 30
0.0
 10
-115.2878
 20
167.5895
 30
0.0
 10
-111.6833
 20
167.5895
 30
0.0
 10
-111.6833
 20
167.5895
 30
0.0
 10
-111.6833
 20
167.5895
 30
0.0
 10
-111.6833
 20
167.5895
 30
0.0
 10
-111.6833
 20
185.6708
 30
0.0
 10
-111.6833
 20
185.6708
 30
0.0
 10
-111.6833
 20
185.6708
 30
0.0
 10
-111.6833
 20
185.6708
 30
0.0
 10
-292.0537
 20
185.6708
 30
0.0
 10
-292.0537
 20
185.6708
 30
0.0
 10
-292.0537
 20
185.6708
 30
0.0
 10
-292.0537
 20
185.6708
 30
0.0
 10
-292.0536
 20
157.5895
 30
0.0
 10
-292.0536
 20
157.5895
 30
0.0
 10
-292.0536
 20
157.5895
 30
0.0
 10
-292.0536
 20
157.5895
 30
0.0
 10
-288.2878
 20
157.5895
 30
0.0
 10
-288.2878
 20
157.5895
 30
0.0
 10
-288.2878
 20
157.5895
 30
0.0
 10
-288.2878
 20
157.5895
 30
0.0
 10
-288.2878
 20
152.0895
 30
0.0
 10
-288.2878
 20
152.0895
 30
0.0
 10
-288.2878
 20
152.0895
 30
0.0
 10
-288.2878
 20
152.0895
 30
0.0
 10
-292.0536
 20
152.0895
 30
0.0
 10
-292.0536
 20
152.0895
 30
0.0
 10
-292.0536
 20
152.0895
 30
0.0
 10
-292.0536
 20
152.0895
 30
0.0
 10
-292.0536
 20
76.16930000000001
 30
0.0
 10
-292.0536
 20
76.16930000000001
 30
0.0
 10
-292.0536
 20
76.16930000000001
 30
0.0
 10
-292.0536
 20
76.16930000000001
 30
0.0
 10
-288.2878
 20
76.16930000000001
 30
0.0
 10
-288.2878
 20
76.16930000000001
 30
0.0
 10
-288.2878
 20
76.16930000000001
 30
0.0
 10
-288.2878
 20
76.16930000000001
 30
0.0
 10
-288.2878
 20
70.66930000000001
 30
0.0
 10
-288.2878
 20
70.66930000000001
 30
0.0
 10
-288.2878
 20
70.66930000000001
 30
0.0
 10
-288.2878
 20
70.66930000000001
 30
0.0
 10
-292.0536
 20
70.66930000000001
 30
0.0
 10
-292.0536
 20
70.66930000000001
 30
0.0
 10
-292.0536
 20
70.66930000000001
 30
0.0
 10
-292.0536
 20
70.66930000000001
 30
0.0
 10
-292.0536
 20
42.7627
 30
0.0
 10
-292.0536
 20
42.7627
 30
0.0
 10
-292.0536
 20
42.7627
 30
0.0
 10
-292.0536
 20
42.7627
 30
0.0
 10
-111.6833
 20
42.74500000000001
 30
0.0
 10
-111.6833
 20
42.74500000000001
 30
0.0
  0
SPLINE
  5
55
330
1F
100
AcDbEntity
  8
EBENE_1
100
AcDbSpline
210
0.0
220
0.0
230
1.0
 70
    11
 71
     3
 72
   116
 73
   112
 74
     0
 42
0.0000000001
 43
0.0000000001
 40
0.0
 40
0.0
 40
0.0
 40
0.0
 40
0.0357142857142857
 40
0.0357142857142857
 40
0.0357142857142857
 40
0.0357142857142857
 40
0.0714285714285714
 40
0.0714285714285714
 40
0.0714285714285714
 40
0.0714285714285714
 40
0.1071428571428571
 40
0.1071428571428571
 40
0.1071428571428571
 40
0.1071428571428571
 40
0.1428571428571429
 40
0.1428571428571429
 40
0.1428571428571429
 40
0.1428571428571429
 40
0.1785714285714286
 40
0.1785714285714286
 40
0.1785714285714286
 40
0.1785714285714286
 40
0.2142857142857143
 40
0.2142857142857143
 40
0.2142857142857143
 40
0.2142857142857143
 40
0.2499999999999999
 40
0.2499999999999999
 40
0.2499999999999999
 40
0.2499999999999999
 40
0.2857142857142856
 40
0.2857142857142856
 40
0.2857142857142856
 40
0.2857142857142856
 40
0.3214285714285713
 40
0.3214285714285713
 40
0.3214285714285713
 40
0.3214285714285713
 40
0.357142857142857
 40
0.357142857142857
 40
0.357142857142857
 40
0.357142857142857
 40
0.3928571428571427
 40
0.3928571428571427
 40
0.3928571428571427
 40
0.3928571428571427
 40
0.4285714285714284
 40
0.4285714285714284
 40
0.4285714285714284
 40
0.4285714285714284
 40
0.4642857142857141
 40
0.4642857142857141
 40
0.4642857142857141
 40
0.4642857142857141
 40
0.4999999999999998
 40
0.4999999999999998
 40
0.4999999999999998
 40
0.4999999999999998
 40
0.5357142857142856
 40
0.5357142857142856
 40
0.5357142857142856
 40
0.5357142857142856
 40
0.5714285714285713
 40
0.5714285714285713
 40
0.5714285714285713
 40
0.5714285714285713
 40
0.607142857142857
 40
0.607142857142857
 40
0.607142857142857
 40
0.607142857142857
 40
0.6428571428571427
 40
0.6428571428571427
 40
0.6428571428571427
 40
0.6428571428571427
 40
0.6785714285714284
 40
0.6785714285714284
 40
0.6785714285714284
 40
0.6785714285714284
 40
0.7142857142857141
 40
0.7142857142857141
 40
0.7142857142857141
 40
0.7142857142857141
 40
0.7499999999999998
 40
0.7499999999999998
 40
0.7499999999999998
 40
0.7499999999999998
 40
0.7857142857142855
 40
0.7857142857142855
 40
0.7857142857142855
 40
0.7857142857142855
 40
0.8214285714285712
 40
0.8214285714285712
 40
0.8214285714285712
 40
0.8214285714285712
 40
0.8571428571428569
 40
0.8571428571428569
 40
0.8571428571428569
 40
0.8571428571428569
 40
0.8928571428571426
 40
0.8928571428571426
 40
0.8928571428571426
 40
0.8928571428571426
 40
0.9285714285714283
 40
0.9285714285714283
 40
0.9285714285714283
 40
0.9285714285714283
 40
0.964285714285714
 40
0.964285714285714
 40
0.964285714285714
 40
0.964285714285714
 40
1.0
 40
1.0
 40
1.0
 40
1.0
 10
89.697
 20
56.6531
 30
0.0
 10
89.697
 20
-3.0687
 30
0.0
 10
89.697
 20
-21.5873
 30
0.0
 10
89.697
 20
-78.35300000000001
 30
0.0
 10
89.697
 20
-78.35300000000001
 30
0.0
 10
89.697
 20
-78.35300000000001
 30
0.0
 10
94.47370000000001
 20
-78.35300000000001
 30
0.0
 10
94.47370000000001
 20
-78.35300000000001
 30
0.0
 10
94.47370000000001
 20
-78.35300000000001
 30
0.0
 10
94.47370000000001
 20
-78.35300000000001
 30
0.0
 10
94.47370000000001
 20
-82.3331
 30
0.0
 10
94.47370000000001
 20
-82.3331
 30
0.0
 10
94.47370000000001
 20
-82.3331
 30
0.0
 10
94.47370000000001
 20
-82.3331
 30
0.0
 10
99.97370000000001
 20
-82.3331
 30
0.0
 10
99.97370000000001
 20
-82.3331
 30
0.0
 10
99.97370000000001
 20
-82.3331
 30
0.0
 10
99.97370000000001
 20
-82.3331
 30
0.0
 10
99.97370000000001
 20
-78.35300000000001
 30
0.0
 10
99.97370000000001
 20
-78.35300000000001
 30
0.0
 10
99.97370000000001
 20
-78.35300000000001
 30
0.0
 10
99.97370000000001
 20
-78.35300000000001
 30
0.0
 10
105.4737
 20
-78.35300000000001
 30
0.0
 10
105.4737
 20
-78.35300000000001
 30
0.0
 10
105.4737
 20
-78.35300000000001
 30
0.0
 10
105.4737
 20
-78.35300000000001
 30
0.0
 10
105.4737
 20
-82.333
 30
0.0
 10
105.4737
 20
-82.333
 30
0.0
 10
105.4737
 20
-82.333
 30
0.0
 10
105.4737
 20
-82.333
 30
0.0
 10
110.9737
 20
-82.333
 30
0.0
 10
110.9737
 20
-82.333
 30
0.0
 10
110.9737
 20
-82.333
 30
0.0
 10
110.9737
 20
-82.333
 30
0.0
 10
110.9737
 20
-78.35300000000001
 30
0.0
 10
110.9737
 20
-78.35300000000001
 30
0.0
 10
110.9737
 20
-78.35300000000001
 30
0.0
 10
110.9737
 20
-78.35300000000001
 30
0.0
 10
115.8731
 20
-78.35300000000001
 30
0.0
 10
115.8731
 20
-78.35300000000001
 30
0.0
 10
115.8731
 20
-78.35300000000001
 30
0.0
 10
115.8731
 20
-78.35300000000001
 30
0.0
 10
115.8731
 20
-54.2858
 30
0.0
 10
115.8731
 20
-54.2858
 30
0.0
 10
115.8731
 20
-54.2858
 30
0.0
 10
115.8731
 20
-54.2858
 30
0.0
 10
119.6389
 20
-54.2858
 30
0.0
 10
119.6389
 20
-54.2858
 30
0.0
 10
119.6389
 20
-54.2858
 30
0.0
 10
119.6389
 20
-54.2858
 30
0.0
 10
119.6389
 20
-48.7858
 30
0.0
 10
119.6389
 20
-48.7858
 30
0.0
 10
119.6389
 20
-48.7858
 30
0.0
 10
119.6389
 20
-48.7858
 30
0.0
 10
115.8731
 20
-48.7858
 30
0.0
 10
115.8731
 20
-48.7858
 30
0.0
 10
115.8731
 20
-48.7858
 30
0.0
 10
115.8731
 20
-48.7858
 30
0.0
 10
115.8731
 20
27.1344
 30
0.0
 10
115.8731
 20
27.1344
 30
0.0
 10
115.8731
 20
27.1344
 30
0.0
 10
115.8731
 20
27.1344
 30
0.0
 10
119.6389
 20
27.1344
 30
0.0
 10
119.6389
 20
27.1344
 30
0.0
 10
119.6389
 20
27.1344
 30
0.0
 10
119.6389
 20
27.1344
 30
0.0
 10
119.6389
 20
32.6344
 30
0.0
 10
119.6389
 20
32.6344
 30
0.0
 10
119.6389
 20
32.6344
 30
0.0
 10
119.6389
 20
32.6344
 30
0.0
 10
115.8731
 20
32.6344
 30
0.0
 10
115.8731
 20
32.6344
 30
0.0
 10
115.8731
 20
32.6344
 30
0.0
 10
115.8731
 20
32.6344
 30
0.0
 10
115.8731
 20
56.65300000000001
 30
0.0
 10
115.8731
 20
56.65300000000001
 30
0.0
 10
115.8731
 20
56.65300000000001
 30
0.0
 10
115.8731
 20
56.65300000000001
 30
0.0
 10
111.4332
 20
56.65300000000001
 30
0.0
 10
111.4332
 20
56.65300000000001
 30
0.0
 10
111.4332
 20
56.65300000000001
 30
0.0
 10
111.4332
 20
56.65300000000001
 30
0.0
 10
111.4332
 20
60.48670000000001
 30
0.0
 10
111.4332
 20
60.48670000000001
 30
0.0
 10
111.4332
 20
60.48670000000001
 30
0.0
 10
111.4332
 20
60.48670000000001
 30
0.0
 10
105.9332
 20
60.48670000000001
 30
0.0
 10
105.9332
 20
60.48670000000001
 30
0.0
 10
105.9332
 20
60.48670000000001
 30
0.0
 10
105.9332
 20
60.48670000000001
 30
0.0
 10
105.9332
 20
56.65300000000001
 30
0.0
 10
105.9332
 20
56.65300000000001
 30
0.0
 10
105.9332
 20
56.65300000000001
 30
0.0
 10
105.9332
 20
56.65300000000001
 30
0.0
 10
100.4332
 20
56.65300000000001
 30
0.0
 10
100.4332
 20
56.65300000000001
 30
0.0
 10
100.4332
 20
56.65300000000001
 30
0.0
 10
100.4332
 20
56.65300000000001
 30
0.0
 10
100.4332
 20
60.48670000000001
 30
0.0
 10
100.4332
 20
60.48670000000001
 30
0.0
 10
100.4332
 20
60.48670000000001
 30
0.0
 10
100.4332
 20
60.48670000000001
 30
0.0
 10
94.9332
 20
60.48670000000001
 30
0.0
 10
94.9332
 20
60.48670000000001
 30
0.0
 10
94.9332
 20
60.48670000000001
 30
0.0
 10
94.9332
 20
60.48670000000001
 30
0.0
 10
94.9332
 20
56.6531
 30
0.0
 10
94.9332
 20
56.6531
 30
0.0
 10
94.9332
 20
56.6531
 30
0.0
 10
94.9332
 20
56.6531
 30
0.0
 10
89.697
 20
56.6531
 30
0.0
 10
89.697
 20
56.6531
 30
0.0
  0
SPLINE
  5
56
330
1F
100
AcDbEntity
  8
EBENE_1
100
AcDbSpline
210
0.0
220
0.0
230
1.0
 70
    11
 71
     3
 72
    20
 73
    16
 74
     0
 42
0.0000000001
 43
0.0000000001
 40
0.0
 40
0.0
 40
0.0
 40
0.0
 40
0.25
 40
0.25
 40
0.25
 40
0.25
 40
0.5
 40
0.5
 40
0.5
 40
0.5
 40
0.75
 40
0.75
 40
0.75
 40
0.75
 40
1.0
 40
1.0
 40
1.0
 40
1.0
 10
-208.17
 20
147.3158
 30
0.0
 10
-208.17
 20
147.3158
 30
0.0
 10
-223.17
 20
147.3158
 30
0.0
 10
-223.17
 20
147.3158
 30
0.0
 10
-223.17
 20
147.3158
 30
0.0
 10
-223.17
 20
147.3158
 30
0.0
 10
-223.17
 20
151.3158
 30
0.0
 10
-223.17
 20
151.3158
 30
0.0
 10
-223.17
 20
151.3158
 30
0.0
 10
-223.17
 20
151.3158
 30
0.0
 10
-208.17
 20
151.3158
 30
0.0
 10
-208.17
 20
151.3158
 30
0.0
 10
-208.17
 20
151.3158
 30
0.0
 10
-208.17
 20
151.3158
 30
0.0
 10
-208.17
 20
147.3158
 30
0.0
 10
-208.17
 20
147.3158
 30
0.0
  0
SPLINE
  5
57
330
1F
100
AcDbEntity
  8
EBENE_1
100
AcDbSpline
210
0.0
220
0.0
230
1.0
 70
    11
 71
     3
 72
    20
 73
    16
 74
     0
 42
0.0000000001
 43
0.0000000001
 40
0.0
 40
0.0
 40
0.0
 40
0.0
 40
0.25
 40
0.25
 40
0.25
 40
0.25
 40
0.5
 40
0.5
 40
0.5
 40
0.5
 40
0.75
 40
0.75
 40
0.75
 40
0.75
 40
1.0
 40
1.0
 40
1.0
 40
1.0
 10
-146.5196
 20
147.3158
 30
0.0
 10
-146.5196
 20
147.3158
 30
0.0
 10
-161.5196
 20
147.3158
 30
0.0
 10
-161.5196
 20
147.3158
 30
0.0
 10
-161.5196
 20
147.3158
 30
0.0
 10
-161.5196
 20
147.3158
 30
0.0
 10
-161.5196
 20
151.3158
 30
0.0
 10
-161.5196
 20
151.3158
 30
0.0
 10
-161.5196
 20
151.3158
 30
0.0
 10
-161.5196
 20
151.3158
 30
0.0
 10
-146.5196
 20
151.3158
 30
0.0
 10
-146.5196
 20
151.3158
 30
0.0
 10
-146.5196
 20
151.3158
 30
0.0
 10
-146.5196
 20
151.3158
 30
0.0
 10
-146.5196
 20
147.3158
 30
0.0
 10
-146.5196
 20
147.3158
 30
0.0
  0
SPLINE
  5
58
330
1F
100
AcDbEntity
  8
EBENE_1
100
AcDbSpline
210
0.0
220
0.0
230
1.0
 70
    11
 71
     3
 72
    20
 73
    16
 74
     0
 42
0.0000000001
 43
0.0000000001
 40
0.0
 40
0.0
 40
0.0
 40
0.0
 40
0.25
 40
0.25
 40
0.25
 40
0.25
 40
0.5
 40
0.5
 40
0.5
 40
0.5
 40
0.75
 40
0.75
 40
0.75
 40
0.75
 40
1.0
 40
1.0
 40
1.0
 40
1.0
 10
-146.5196
 20
77.10000000000001
 30
0.0
 10
-146.5196
 20
77.10000000000001
 30
0.0
 10
-161.5196
 20
77.10000000000001
 30
0.0
 10
-161.5196
 20
77.10000000000001
 30
0.0
 10
-161.5196
 20
77.10000000000001
 30
0.0
 10
-161.5196
 20
77.10000000000001
 30
0.0
 10
-161.5196
 20
81.10000000000001
 30
0.0
 10
-161.5196
 20
81.10000000000001
 30
0.0
 10
-161.5196
 20
81.10000000000001
 30
0.0
 10
-161.5196
 20
81.10000000000001
 30
0.0
 10
-146.5196
 20
81.10000000000001
 30
0.0
 10
-146.5196
 20
81.10000000000001
 30
0.0
 10
-146.5196
 20
81.10000000000001
 30
0.0
 10
-146.5196
 20
81.10000000000001
 30
0.0
 10
-146.5196
 20
77.10000000000001
 30
0.0
 10
-146.5196
 20
77.10000000000001
 30
0.0
  0
SPLINE
  5
59
330
1F
100
AcDbEntity
  8
EBENE_1
100
AcDbSpline
210
0.0
220
0.0
230
1.0
 70
    11
 71
     3
 72
    20
 73
    16
 74
     0
 42
0.0000000001
 43
0.0000000001
 40
0.0
 40
0.0
 40
0.0
 40
0.0
 40
0.25
 40
0.25
 40
0.25
 40
0.25
 40
0.5
 40
0.5
 40
0.5
 40
0.5
 40
0.75
 40
0.75
 40
0.75
 40
0.75
 40
1.0
 40
1.0
 40
1.0
 40
1.0
 10
-208.17
 20
77.10000000000001
 30
0.0
 10
-208.17
 20
77.10000000000001
 30
0.0
 10
-223.17
 20
77.10000000000001
 30
0.0
 10
-223.17
 20
77.10000000000001
 30
0.0
 10
-223.17
 20
77.10000000000001
 30
0.0
 10
-223.17
 20
77.10000000000001
 30
0.0
 10
-223.17
 20
81.10000000000001
 30
0.0
 10
-223.17
 20
81.10000000000001
 30
0.0
 10
-223.17
 20
81.10000000000001
 30
0.0
 10
-223.17
 20
81.10000000000001
 30
0.0
 10
-208.17
 20
81.10000000000001
 30
0.0
 10
-208.17
 20
81.10000000000001
 30
0.0
 10
-208.17
 20
81.10000000000001
 30
0.0
 10
-208.17
 20
81.10000000000001
 30
0.0
 10
-208.17
 20
77.10000000000001
 30
0.0
 10
-208.17
 20
77.10000000000001
 30
0.0
  0
SPLINE
  5
5A
330
1F
100
AcDbEntity
  8
EBENE_1
100
AcDbSpline
210
0.0
220
0.0
230
1.0
 70
    11
 71
     3
 72
    84
 73
    80
 74
     0
 42
0.0000000001
 43
0.0000000001
 40
0.0
 40
0.0
 40
0.0
 40
0.0
 40
0.05
 40
0.05
 40
0.05
 40
0.05
 40
0.1
 40
0.1
 40
0.1
 40
0.1
 40
0.15
 40
0.15
 40
0.15
 40
0.15
 40
0.2
 40
0.2
 40
0.2
 40
0.2
 40
0.25
 40
0.25
 40
0.25
 40
0.25
 40
0.3
 40
0.3
 40
0.3
 40
0.3
 40
0.35
 40
0.35
 40
0.35
 40
0.35
 40
0.4
 40
0.4
 40
0.4
 40
0.4
 40
0.45
 40
0.45
 40
0.45
 40
0.45
 40
0.4999999999999999
 40
0.4999999999999999
 40
0.4999999999999999
 40
0.4999999999999999
 40
0.5499999999999999
 40
0.5499999999999999
 40
0.5499999999999999
 40
0.5499999999999999
 40
0.6
 40
0.6
 40
0.6
 40
0.6
 40
0.65
 40
0.65
 40
0.65
 40
0.65
 40
0.7000000000000001
 40
0.7000000000000001
 40
0.7000000000000001
 40
0.7000000000000001
 40
0.7500000000000001
 40
0.7500000000000001
 40
0.7500000000000001
 40
0.7500000000000001
 40
0.8000000000000002
 40
0.8000000000000002
 40
0.8000000000000002
 40
0.8000000000000002
 40
0.8500000000000002
 40
0.8500000000000002
 40
0.8500000000000002
 40
0.8500000000000002
 40
0.9000000000000002
 40
0.9000000000000002
 40
0.9000000000000002
 40
0.9000000000000002
 40
0.9500000000000003
 40
0.9500000000000003
 40
0.9500000000000003
 40
0.9500000000000003
 40
1.0
 40
1.0
 40
1.0
 40
1.0
 10
-105.5679
 20
186.6604
 30
0.0
 10
-105.5679
 20
186.6604
 30
0.0
 10
-105.5679
 20
6.256200000000001
 30
0.0
 10
-105.5679
 20
6.256200000000001
 30
0.0
 10
-105.5679
 20
6.256200000000001
 30
0.0
 10
-105.5679
 20
6.256200000000001
 30
0.0
 10
-100.7066
 20
6.256200000000001
 30
0.0
 10
-100.7066
 20
6.256200000000001
 30
0.0
 10
-100.7066
 20
6.256200000000001
 30
0.0
 10
-100.7066
 20
6.256200000000001
 30
0.0
 10
-100.7066
 20
10.153
 30
0.0
 10
-100.7066
 20
10.153
 30
0.0
 10
-100.7066
 20
10.153
 30
0.0
 10
-100.7066
 20
10.153
 30
0.0
 10
-95.20660000000001
 20
10.153
 30
0.0
 10
-95.20660000000001
 20
10.153
 30
0.0
 10
-95.20660000000001
 20
10.153
 30
0.0
 10
-95.20660000000001
 20
10.153
 30
0.0
 10
-95.20660000000001
 20
6.256200000000001
 30
0.0
 10
-95.20660000000001
 20
6.256200000000001
 30
0.0
 10
-95.20660000000001
 20
6.256200000000001
 30
0.0
 10
-95.20660000000001
 20
6.256200000000001
 30
0.0
 10
-89.70660000000001
 20
6.256200000000001
 30
0.0
 10
-89.70660000000001
 20
6.256200000000001
 30
0.0
 10
-89.70660000000001
 20
6.256200000000001
 30
0.0
 10
-89.70660000000001
 20
6.256200000000001
 30
0.0
 10
-89.70660000000001
 20
10.1531
 30
0.0
 10
-89.70660000000001
 20
10.1531
 30
0.0
 10
-89.70660000000001
 20
10.1531
 30
0.0
 10
-89.70660000000001
 20
10.1531
 30
0.0
 10
-84.20660000000001
 20
10.1531
 30
0.0
 10
-84.20660000000001
 20
10.1531
 30
0.0
 10
-84.20660000000001
 20
10.1531
 30
0.0
 10
-84.20660000000001
 20
10.1531
 30
0.0
 10
-84.20660000000001
 20
6.256200000000001
 30
0.0
 10
-84.20660000000001
 20
6.256200000000001
 30
0.0
 10
-84.20660000000001
 20
6.256200000000001
 30
0.0
 10
-84.20660000000001
 20
6.256200000000001
 30
0.0
 10
-79.3918
 20
6.256200000000001
 30
0.0
 10
-79.3918
 20
6.256200000000001
 30
0.0
 10
-79.3918
 20
6.256200000000001
 30
0.0
 10
-79.3918
 20
6.256200000000001
 30
0.0
 10
-79.3918
 20
186.6604
 30
0.0
 10
-79.3918
 20
186.6604
 30
0.0
 10
-79.3918
 20
186.6604
 30
0.0
 10
-79.3918
 20
186.6604
 30
0.0
 10
-84.20660000000001
 20
186.6604
 30
0.0
 10
-84.20660000000001
 20
186.6604
 30
0.0
 10
-84.20660000000001
 20
186.6604
 30
0.0
 10
-84.20660000000001
 20
186.6604
 30
0.0
 10
-84.20660000000001
 20
182.7348
 30
0.0
 10
-84.20660000000001
 20
182.7348
 30
0.0
 10
-84.20660000000001
 20
182.7348
 30
0.0
 10
-84.20660000000001
 20
182.7348
 30
0.0
 10
-89.70660000000001
 20
182.7348
 30
0.0
 10
-89.70660000000001
 20
182.7348
 30
0.0
 10
-89.70660000000001
 20
182.7348
 30
0.0
 10
-89.70660000000001
 20
182.7348
 30
0.0
 10
-89.70660000000001
 20
186.6604
 30
0.0
 10
-89.70660000000001
 20
186.6604
 30
0.0
 10
-89.70660000000001
 20
186.6604
 30
0.0
 10
-89.70660000000001
 20
186.6604
 30
0.0
 10
-95.20660000000001
 20
186.6604
 30
0.0
 10
-95.20660000000001
 20
186.6604
 30
0.0
 10
-95.20660000000001
 20
186.6604
 30
0.0
 10
-95.20660000000001
 20
186.6604
 30
0.0
 10
-95.20660000000001
 20
182.7349
 30
0.0
 10
-95.20660000000001
 20
182.7349
 30
0.0
 10
-95.20660000000001
 20
182.7349
 30
0.0
 10
-95.20660000000001
 20
182.7349
 30
0.0
 10
-100.7066
 20
182.7349
 30
0.0
 10
-100.7066
 20
182.7349
 30
0.0
 10
-100.7066
 20
182.7349
 30
0.0
 10
-100.7066
 20
182.7349
 30
0.0
 10
-100.7066
 20
186.6604
 30
0.0
 10
-100.7066
 20
186.6604
 30
0.0
 10
-100.7066
 20
186.6604
 30
0.0
 10
-100.7066
 20
186.6604
 30
0.0
 10
-105.5679
 20
186.6604
 30
0.0
 10
-105.5679
 20
186.6604
 30
0.0
  0
SPLINE
  5
5B
330
1F
100
AcDbEntity
  8
EBENE_1
100
AcDbSpline
210
0.0
220
0.0
230
1.0
 70
    11
 71
     3
 72
   100
 73
    96
 74
     0
 42
0.0000000001
 43
0.0000000001
 40
0.0
 40
0.0
 40
0.0
 40
0.0
 40
0.0416666666666667
 40
0.0416666666666667
 40
0.0416666666666667
 40
0.0416666666666667
 40
0.0833333333333333
 40
0.0833333333333333
 40
0.0833333333333333
 40
0.0833333333333333
 40
0.125
 40
0.125
 40
0.125
 40
0.125
 40
0.1666666666666667
 40
0.1666666666666667
 40
0.1666666666666667
 40
0.1666666666666667
 40
0.2083333333333333
 40
0.2083333333333333
 40
0.2083333333333333
 40
0.2083333333333333
 40
0.25
 40
0.25
 40
0.25
 40
0.25
 40
0.2916666666666666
 40
0.2916666666666666
 40
0.2916666666666666
 40
0.2916666666666666
 40
0.3333333333333333
 40
0.3333333333333333
 40
0.3333333333333333
 40
0.3333333333333333
 40
0.375
 40
0.375
 40
0.375
 40
0.375
 40
0.4166666666666667
 40
0.4166666666666667
 40
0.4166666666666667
 40
0.4166666666666667
 40
0.4583333333333334
 40
0.4583333333333334
 40
0.4583333333333334
 40
0.4583333333333334
 40
0.5
 40
0.5
 40
0.5
 40
0.5
 40
0.5416666666666666
 40
0.5416666666666666
 40
0.5416666666666666
 40
0.5416666666666666
 40
0.5833333333333333
 40
0.5833333333333333
 40
0.5833333333333333
 40
0.5833333333333333
 40
0.6249999999999999
 40
0.6249999999999999
 40
0.6249999999999999
 40
0.6249999999999999
 40
0.6666666666666665
 40
0.6666666666666665
 40
0.6666666666666665
 40
0.6666666666666665
 40
0.7083333333333332
 40
0.7083333333333332
 40
0.7083333333333332
 40
0.7083333333333332
 40
0.7499999999999998
 40
0.7499999999999998
 40
0.7499999999999998
 40
0.7499999999999998
 40
0.7916666666666664
 40
0.7916666666666664
 40
0.7916666666666664
 40
0.7916666666666664
 40
0.833333333333333
 40
0.833333333333333
 40
0.833333333333333
 40
0.833333333333333
 40
0.8749999999999997
 40
0.8749999999999997
 40
0.8749999999999997
 40
0.8749999999999997
 40
0.9166666666666663
 40
0.9166666666666663
 40
0.9166666666666663
 40
0.9166666666666663
 40
0.9583333333333329
 40
0.9583333333333329
 40
0.9583333333333329
 40
0.9583333333333329
 40
1.0
 40
1.0
 40
1.0
 40
1.0
 10
-186.4802
 20
-131.5205
 30
0.0
 10
-186.4802
 20
-131.5205
 30
0.0
 10
-191.4802
 20
-131.5205
 30
0.0
 10
-191.4802
 20
-131.5205
 30
0.0
 10
-191.4802
 20
-131.5205
 30
0.0
 10
-191.4802
 20
-131.5205
 30
0.0
 10
-191.4802
 20
-127.5996
 30
0.0
 10
-191.4802
 20
-127.5996
 30
0.0
 10
-191.4802
 20
-127.5996
 30
0.0
 10
-191.4802
 20
-127.5996
 30
0.0
 10
-196.4802
 20
-127.5996
 30
0.0
 10
-196.4802
 20
-127.5996
 30
0.0
 10
-196.4802
 20
-127.5996
 30
0.0
 10
-196.4802
 20
-127.5996
 30
0.0
 10
-196.4802
 20
-131.5205
 30
0.0
 10
-196.4802
 20
-131.5205
 30
0.0
 10
-196.4802
 20
-131.5205
 30
0.0
 10
-196.4802
 20
-131.5205
 30
0.0
 10
-201.4802
 20
-131.5205
 30
0.0
 10
-201.4802
 20
-131.5205
 30
0.0
 10
-201.4802
 20
-131.5205
 30
0.0
 10
-201.4802
 20
-131.5205
 30
0.0
 10
-201.4802
 20
-127.5996
 30
0.0
 10
-201.4802
 20
-127.5996
 30
0.0
 10
-201.4802
 20
-127.5996
 30
0.0
 10
-201.4802
 20
-127.5996
 30
0.0
 10
-206.4802
 20
-127.5996
 30
0.0
 10
-206.4802
 20
-127.5996
 30
0.0
 10
-206.4802
 20
-127.5996
 30
0.0
 10
-206.4802
 20
-127.5996
 30
0.0
 10
-206.4802
 20
-131.5205
 30
0.0
 10
-206.4802
 20
-131.5205
 30
0.0
 10
-206.4802
 20
-131.5205
 30
0.0
 10
-206.4802
 20
-131.5205
 30
0.0
 10
-211.4802
 20
-131.5205
 30
0.0
 10
-211.4802
 20
-131.5205
 30
0.0
 10
-211.4802
 20
-131.5205
 30
0.0
 10
-211.4802
 20
-131.5205
 30
0.0
 10
-211.4802
 20
-127.5996
 30
0.0
 10
-211.4802
 20
-127.5996
 30
0.0
 10
-211.4802
 20
-127.5996
 30
0.0
 10
-211.4802
 20
-127.5996
 30
0.0
 10
-216.4802
 20
-127.5996
 30
0.0
 10
-216.4802
 20
-127.5996
 30
0.0
 10
-216.4802
 20
-127.5996
 30
0.0
 10
-216.4802
 20
-127.5996
 30
0.0
 10
-216.4802
 20
-131.5205
 30
0.0
 10
-216.4802
 20
-131.5205
 30
0.0
 10
-216.4802
 20
-131.5205
 30
0.0
 10
-216.4802
 20
-131.5205
 30
0.0
 10
-221.4831
 20
-131.5205
 30
0.0
 10
-221.4831
 20
-131.5205
 30
0.0
 10
-221.4831
 20
-131.5205
 30
0.0
 10
-221.4831
 20
-131.5205
 30
0.0
 10
-221.4831
 20
-98.28400000000001
 30
0.0
 10
-221.4831
 20
-98.28400000000001
 30
0.0
 10
-221.4831
 20
-98.28400000000001
 30
0.0
 10
-221.4831
 20
-98.28400000000001
 30
0.0
 10
-232.4348
 20
-98.28400000000001
 30
0.0
 10
-232.4348
 20
-98.28400000000001
 30
0.0
 10
-232.4348
 20
-98.28400000000001
 30
0.0
 10
-232.4348
 20
-98.28400000000001
 30
0.0
 10
-232.4348
 20
-184.3788
 30
0.0
 10
-232.4348
 20
-184.3788
 30
0.0
 10
-232.4348
 20
-184.3788
 30
0.0
 10
-232.4348
 20
-184.3788
 30
0.0
 10
-232.3664
 20
-184.3788
 30
0.0
 10
-232.3664
 20
-184.3788
 30
0.0
 10
-232.3664
 20
-184.3788
 30
0.0
 10
-232.3664
 20
-184.3788
 30
0.0
 10
-232.3664
 20
-192.6186
 30
0.0
 10
-232.3664
 20
-192.6186
 30
0.0
 10
-232.3664
 20
-192.6186
 30
0.0
 10
-232.3664
 20
-192.6186
 30
0.0
 10
-216.1567
 20
-192.6186
 30
0.0
 10
-216.1567
 20
-192.6186
 30
0.0
 10
-216.1567
 20
-192.6186
 30
0.0
 10
-216.1567
 20
-192.6186
 30
0.0
 10
-182.534
 20
-131.5996
 30
0.0
 10
-182.534
 20
-131.5996
 30
0.0
 10
-182.534
 20
-131.5996
 30
0.0
 10
-182.534
 20
-131.5996
 30
0.0
 10
-181.4802
 20
-131.5996
 30
0.0
 10
-181.4802
 20
-131.5996
 30
0.0
 10
-181.4802
 20
-131.5996
 30
0.0
 10
-181.4802
 20
-131.5996
 30
0.0
 10
-181.4802
 20
-127.5996
 30
0.0
 10
-181.4802
 20
-127.5996
 30
0.0
 10
-181.4802
 20
-127.5996
 30
0.0
 10
-181.4802
 20
-127.5996
 30
0.0
 10
-186.4802
 20
-127.5996
 30
0.0
 10
-186.4802
 20
-127.5996
 30
0.0
 10
-186.4802
 20
-127.5996
 30
0.0
 10
-186.4802
 20
-127.5996
 30
0.0
 10
-186.4802
 20
-131.5205
 30
0.0
 10
-186.4802
 20
-131.5205
 30
0.0
  0
SPLINE
  5
5C
330
1F
100
AcDbEntity
  8
EBENE_1
100
AcDbSpline
210
0.0
220
0.0
230
1.0
 70
    11
 71
     3
 72
   100
 73
    96
 74
     0
 42
0.0000000001
 43
0.0000000001
 40
0.0
 40
0.0
 40
0.0
 40
0.0
 40
0.0416666666666667
 40
0.0416666666666667
 40
0.0416666666666667
 40
0.0416666666666667
 40
0.0833333333333333
 40
0.0833333333333333
 40
0.0833333333333333
 40
0.0833333333333333
 40
0.125
 40
0.125
 40
0.125
 40
0.125
 40
0.1666666666666667
 40
0.1666666666666667
 40
0.1666666666666667
 40
0.1666666666666667
 40
0.2083333333333333
 40
0.2083333333333333
 40
0.2083333333333333
 40
0.2083333333333333
 40
0.25
 40
0.25
 40
0.25
 40
0.25
 40
0.2916666666666666
 40
0.2916666666666666
 40
0.2916666666666666
 40
0.2916666666666666
 40
0.3333333333333333
 40
0.3333333333333333
 40
0.3333333333333333
 40
0.3333333333333333
 40
0.375
 40
0.375
 40
0.375
 40
0.375
 40
0.4166666666666667
 40
0.4166666666666667
 40
0.4166666666666667
 40
0.4166666666666667
 40
0.4583333333333334
 40
0.4583333333333334
 40
0.4583333333333334
 40
0.4583333333333334
 40
0.5
 40
0.5
 40
0.5
 40
0.5
 40
0.5416666666666666
 40
0.5416666666666666
 40
0.5416666666666666
 40
0.5416666666666666
 40
0.5833333333333333
 40
0.5833333333333333
 40
0.5833333333333333
 40
0.5833333333333333
 40
0.6249999999999999
 40
0.6249999999999999
 40
0.6249999999999999
 40
0.6249999999999999
 40
0.6666666666666665
 40
0.6666666666666665
 40
0.6666666666666665
 40
0.6666666666666665
 40
0.7083333333333332
 40
0.7083333333333332
 40
0.7083333333333332
 40
0.7083333333333332
 40
0.7499999999999998
 40
0.7499999999999998
 40
0.7499999999999998
 40
0.7499999999999998
 40
0.7916666666666664
 40
0.7916666666666664
 40
0.7916666666666664
 40
0.7916666666666664
 40
0.833333333333333
 40
0.833333333333333
 40
0.833333333333333
 40
0.833333333333333
 40
0.8749999999999997
 40
0.8749999999999997
 40
0.8749999999999997
 40
0.8749999999999997
 40
0.9166666666666663
 40
0.9166666666666663
 40
0.9166666666666663
 40
0.9166666666666663
 40
0.9583333333333329
 40
0.9583333333333329
 40
0.9583333333333329
 40
0.9583333333333329
 40
1.0
 40
1.0
 40
1.0
 40
1.0
 10
-132.5451
 20
-131.5205
 30
0.0
 10
-132.5451
 20
-131.5205
 30
0.0
 10
-137.5451
 20
-131.5205
 30
0.0
 10
-137.5451
 20
-131.5205
 30
0.0
 10
-137.5451
 20
-131.5205
 30
0.0
 10
-137.5451
 20
-131.5205
 30
0.0
 10
-137.5451
 20
-127.5996
 30
0.0
 10
-137.5451
 20
-127.5996
 30
0.0
 10
-137.5451
 20
-127.5996
 30
0.0
 10
-137.5451
 20
-127.5996
 30
0.0
 10
-142.5451
 20
-127.5996
 30
0.0
 10
-142.5451
 20
-127.5996
 30
0.0
 10
-142.5451
 20
-127.5996
 30
0.0
 10
-142.5451
 20
-127.5996
 30
0.0
 10
-142.5451
 20
-131.5205
 30
0.0
 10
-142.5451
 20
-131.5205
 30
0.0
 10
-142.5451
 20
-131.5205
 30
0.0
 10
-142.5451
 20
-131.5205
 30
0.0
 10
-147.5451
 20
-131.5205
 30
0.0
 10
-147.5451
 20
-131.5205
 30
0.0
 10
-147.5451
 20
-131.5205
 30
0.0
 10
-147.5451
 20
-131.5205
 30
0.0
 10
-147.5451
 20
-127.5996
 30
0.0
 10
-147.5451
 20
-127.5996
 30
0.0
 10
-147.5451
 20
-127.5996
 30
0.0
 10
-147.5451
 20
-127.5996
 30
0.0
 10
-152.5451
 20
-127.5996
 30
0.0
 10
-152.5451
 20
-127.5996
 30
0.0
 10
-152.5451
 20
-127.5996
 30
0.0
 10
-152.5451
 20
-127.5996
 30
0.0
 10
-152.5451
 20
-131.5205
 30
0.0
 10
-152.5451
 20
-131.5205
 30
0.0
 10
-152.5451
 20
-131.5205
 30
0.0
 10
-152.5451
 20
-131.5205
 30
0.0
 10
-157.5451
 20
-131.5205
 30
0.0
 10
-157.5451
 20
-131.5205
 30
0.0
 10
-157.5451
 20
-131.5205
 30
0.0
 10
-157.5451
 20
-131.5205
 30
0.0
 10
-157.5451
 20
-127.5996
 30
0.0
 10
-157.5451
 20
-127.5996
 30
0.0
 10
-157.5451
 20
-127.5996
 30
0.0
 10
-157.5451
 20
-127.5996
 30
0.0
 10
-162.5451
 20
-127.5996
 30
0.0
 10
-162.5451
 20
-127.5996
 30
0.0
 10
-162.5451
 20
-127.5996
 30
0.0
 10
-162.5451
 20
-127.5996
 30
0.0
 10
-162.5451
 20
-131.5205
 30
0.0
 10
-162.5451
 20
-131.5205
 30
0.0
 10
-162.5451
 20
-131.5205
 30
0.0
 10
-162.5451
 20
-131.5205
 30
0.0
 10
-167.548
 20
-131.5205
 30
0.0
 10
-167.548
 20
-131.5205
 30
0.0
 10
-167.548
 20
-131.5205
 30
0.0
 10
-167.548
 20
-131.5205
 30
0.0
 10
-167.548
 20
-98.28400000000001
 30
0.0
 10
-167.548
 20
-98.28400000000001
 30
0.0
 10
-167.548
 20
-98.28400000000001
 30
0.0
 10
-167.548
 20
-98.28400000000001
 30
0.0
 10
-178.4997
 20
-98.28400000000001
 30
0.0
 10
-178.4997
 20
-98.28400000000001
 30
0.0
 10
-178.4997
 20
-98.28400000000001
 30
0.0
 10
-178.4997
 20
-98.28400000000001
 30
0.0
 10
-178.4997
 20
-184.3788
 30
0.0
 10
-178.4997
 20
-184.3788
 30
0.0
 10
-178.4997
 20
-184.3788
 30
0.0
 10
-178.4997
 20
-184.3788
 30
0.0
 10
-178.4313
 20
-184.3788
 30
0.0
 10
-178.4313
 20
-184.3788
 30
0.0
 10
-178.4313
 20
-184.3788
 30
0.0
 10
-178.4313
 20
-184.3788
 30
0.0
 10
-178.4313
 20
-192.6186
 30
0.0
 10
-178.4313
 20
-192.6186
 30
0.0
 10
-178.4313
 20
-192.6186
 30
0.0
 10
-178.4313
 20
-192.6186
 30
0.0
 10
-162.2216
 20
-192.6186
 30
0.0
 10
-162.2216
 20
-192.6186
 30
0.0
 10
-162.2216
 20
-192.6186
 30
0.0
 10
-162.2216
 20
-192.6186
 30
0.0
 10
-128.5989
 20
-131.5996
 30
0.0
 10
-128.5989
 20
-131.5996
 30
0.0
 10
-128.5989
 20
-131.5996
 30
0.0
 10
-128.5989
 20
-131.5996
 30
0.0
 10
-127.5451
 20
-131.5996
 30
0.0
 10
-127.5451
 20
-131.5996
 30
0.0
 10
-127.5451
 20
-131.5996
 30
0.0
 10
-127.5451
 20
-131.5996
 30
0.0
 10
-127.5451
 20
-127.5996
 30
0.0
 10
-127.5451
 20
-127.5996
 30
0.0
 10
-127.5451
 20
-127.5996
 30
0.0
 10
-127.5451
 20
-127.5996
 30
0.0
 10
-132.5451
 20
-127.5996
 30
0.0
 10
-132.5451
 20
-127.5996
 30
0.0
 10
-132.5451
 20
-127.5996
 30
0.0
 10
-132.5451
 20
-127.5996
 30
0.0
 10
-132.5451
 20
-131.5205
 30
0.0
 10
-132.5451
 20
-131.5205
 30
0.0
  0
SPLINE
  5
5D
330
1F
100
AcDbEntity
  8
EBENE_1
100
AcDbSpline
210
0.0
220
0.0
230
1.0
 70
    11
 71
     3
 72
   100
 73
    96
 74
     0
 42
0.0000000001
 43
0.0000000001
 40
0.0
 40
0.0
 40
0.0
 40
0.0
 40
0.0416666666666667
 40
0.0416666666666667
 40
0.0416666666666667
 40
0.0416666666666667
 40
0.0833333333333333
 40
0.0833333333333333
 40
0.0833333333333333
 40
0.0833333333333333
 40
0.125
 40
0.125
 40
0.125
 40
0.125
 40
0.1666666666666667
 40
0.1666666666666667
 40
0.1666666666666667
 40
0.1666666666666667
 40
0.2083333333333333
 40
0.2083333333333333
 40
0.2083333333333333
 40
0.2083333333333333
 40
0.25
 40
0.25
 40
0.25
 40
0.25
 40
0.2916666666666666
 40
0.2916666666666666
 40
0.2916666666666666
 40
0.2916666666666666
 40
0.3333333333333333
 40
0.3333333333333333
 40
0.3333333333333333
 40
0.3333333333333333
 40
0.375
 40
0.375
 40
0.375
 40
0.375
 40
0.4166666666666667
 40
0.4166666666666667
 40
0.4166666666666667
 40
0.4166666666666667
 40
0.4583333333333334
 40
0.4583333333333334
 40
0.4583333333333334
 40
0.4583333333333334
 40
0.5
 40
0.5
 40
0.5
 40
0.5
 40
0.5416666666666666
 40
0.5416666666666666
 40
0.5416666666666666
 40
0.5416666666666666
 40
0.5833333333333333
 40
0.5833333333333333
 40
0.5833333333333333
 40
0.5833333333333333
 40
0.6249999999999999
 40
0.6249999999999999
 40
0.6249999999999999
 40
0.6249999999999999
 40
0.6666666666666665
 40
0.6666666666666665
 40
0.6666666666666665
 40
0.6666666666666665
 40
0.7083333333333332
 40
0.7083333333333332
 40
0.7083333333333332
 40
0.7083333333333332
 40
0.7499999999999998
 40
0.7499999999999998
 40
0.7499999999999998
 40
0.7499999999999998
 40
0.7916666666666664
 40
0.7916666666666664
 40
0.7916666666666664
 40
0.7916666666666664
 40
0.833333333333333
 40
0.833333333333333
 40
0.833333333333333
 40
0.833333333333333
 40
0.8749999999999997
 40
0.8749999999999997
 40
0.8749999999999997
 40
0.8749999999999997
 40
0.9166666666666663
 40
0.9166666666666663
 40
0.9166666666666663
 40
0.9166666666666663
 40
0.9583333333333329
 40
0.9583333333333329
 40
0.9583333333333329
 40
0.9583333333333329
 40
1.0
 40
1.0
 40
1.0
 40
1.0
 10
-78.61
 20
-131.5205
 30
0.0
 10
-78.61
 20
-131.5205
 30
0.0
 10
-83.61
 20
-131.5205
 30
0.0
 10
-83.61
 20
-131.5205
 30
0.0
 10
-83.61
 20
-131.5205
 30
0.0
 10
-83.61
 20
-131.5205
 30
0.0
 10
-83.61
 20
-127.5996
 30
0.0
 10
-83.61
 20
-127.5996
 30
0.0
 10
-83.61
 20
-127.5996
 30
0.0
 10
-83.61
 20
-127.5996
 30
0.0
 10
-88.61
 20
-127.5996
 30
0.0
 10
-88.61
 20
-127.5996
 30
0.0
 10
-88.61
 20
-127.5996
 30
0.0
 10
-88.61
 20
-127.5996
 30
0.0
 10
-88.61
 20
-131.5205
 30
0.0
 10
-88.61
 20
-131.5205
 30
0.0
 10
-88.61
 20
-131.5205
 30
0.0
 10
-88.61
 20
-131.5205
 30
0.0
 10
-93.61
 20
-131.5205
 30
0.0
 10
-93.61
 20
-131.5205
 30
0.0
 10
-93.61
 20
-131.5205
 30
0.0
 10
-93.61
 20
-131.5205
 30
0.0
 10
-93.61
 20
-127.5996
 30
0.0
 10
-93.61
 20
-127.5996
 30
0.0
 10
-93.61
 20
-127.5996
 30
0.0
 10
-93.61
 20
-127.5996
 30
0.0
 10
-98.61
 20
-127.5996
 30
0.0
 10
-98.61
 20
-127.5996
 30
0.0
 10
-98.61
 20
-127.5996
 30
0.0
 10
-98.61
 20
-127.5996
 30
0.0
 10
-98.61
 20
-131.5205
 30
0.0
 10
-98.61
 20
-131.5205
 30
0.0
 10
-98.61
 20
-131.5205
 30
0.0
 10
-98.61
 20
-131.5205
 30
0.0
 10
-103.61
 20
-131.5205
 30
0.0
 10
-103.61
 20
-131.5205
 30
0.0
 10
-103.61
 20
-131.5205
 30
0.0
 10
-103.61
 20
-131.5205
 30
0.0
 10
-103.61
 20
-127.5996
 30
0.0
 10
-103.61
 20
-127.5996
 30
0.0
 10
-103.61
 20
-127.5996
 30
0.0
 10
-103.61
 20
-127.5996
 30
0.0
 10
-108.61
 20
-127.5996
 30
0.0
 10
-108.61
 20
-127.5996
 30
0.0
 10
-108.61
 20
-127.5996
 30
0.0
 10
-108.61
 20
-127.5996
 30
0.0
 10
-108.61
 20
-131.5205
 30
0.0
 10
-108.61
 20
-131.5205
 30
0.0
 10
-108.61
 20
-131.5205
 30
0.0
 10
-108.61
 20
-131.5205
 30
0.0
 10
-113.6129
 20
-131.5205
 30
0.0
 10
-113.6129
 20
-131.5205
 30
0.0
 10
-113.6129
 20
-131.5205
 30
0.0
 10
-113.6129
 20
-131.5205
 30
0.0
 10
-113.6129
 20
-98.28400000000001
 30
0.0
 10
-113.6129
 20
-98.28400000000001
 30
0.0
 10
-113.6129
 20
-98.28400000000001
 30
0.0
 10
-113.6129
 20
-98.28400000000001
 30
0.0
 10
-124.5646
 20
-98.28400000000001
 30
0.0
 10
-124.5646
 20
-98.28400000000001
 30
0.0
 10
-124.5646
 20
-98.28400000000001
 30
0.0
 10
-124.5646
 20
-98.28400000000001
 30
0.0
 10
-124.5646
 20
-184.3788
 30
0.0
 10
-124.5646
 20
-184.3788
 30
0.0
 10
-124.5646
 20
-184.3788
 30
0.0
 10
-124.5646
 20
-184.3788
 30
0.0
 10
-124.4962
 20
-184.3788
 30
0.0
 10
-124.4962
 20
-184.3788
 30
0.0
 10
-124.4962
 20
-184.3788
 30
0.0
 10
-124.4962
 20
-184.3788
 30
0.0
 10
-124.4962
 20
-192.6186
 30
0.0
 10
-124.4962
 20
-192.6186
 30
0.0
 10
-124.4962
 20
-192.6186
 30
0.0
 10
-124.4962
 20
-192.6186
 30
0.0
 10
-108.2865
 20
-192.6186
 30
0.0
 10
-108.2865
 20
-192.6186
 30
0.0
 10
-108.2865
 20
-192.6186
 30
0.0
 10
-108.2865
 20
-192.6186
 30
0.0
 10
-74.66380000000001
 20
-131.5996
 30
0.0
 10
-74.66380000000001
 20
-131.5996
 30
0.0
 10
-74.66380000000001
 20
-131.5996
 30
0.0
 10
-74.66380000000001
 20
-131.5996
 30
0.0
 10
-73.61
 20
-131.5996
 30
0.0
 10
-73.61
 20
-131.5996
 30
0.0
 10
-73.61
 20
-131.5996
 30
0.0
 10
-73.61
 20
-131.5996
 30
0.0
 10
-73.61
 20
-127.5996
 30
0.0
 10
-73.61
 20
-127.5996
 30
0.0
 10
-73.61
 20
-127.5996
 30
0.0
 10
-73.61
 20
-127.5996
 30
0.0
 10
-78.61
 20
-127.5996
 30
0.0
 10
-78.61
 20
-127.5996
 30
0.0
 10
-78.61
 20
-127.5996
 30
0.0
 10
-78.61
 20
-127.5996
 30
0.0
 10
-78.61
 20
-131.5205
 30
0.0
 10
-78.61
 20
-131.5205
 30
0.0
  0
SPLINE
  5
5E
330
1F
100
AcDbEntity
  8
EBENE_1
100
AcDbSpline
210
0.0
220
0.0
230
1.0
 70
    11
 71
     3
 72
    36
 73
    32
 74
     0
 42
0.0000000001
 43
0.0000000001
 40
0.0
 40
0.0
 40
0.0
 40
0.0
 40
0.125
 40
0.125
 40
0.125
 40
0.125
 40
0.25
 40
0.25
 40
0.25
 40
0.25
 40
0.375
 40
0.375
 40
0.375
 40
0.375
 40
0.5
 40
0.5
 40
0.5
 40
0.5
 40
0.625
 40
0.625
 40
0.625
 40
0.625
 40
0.75
 40
0.75
 40
0.75
 40
0.75
 40
0.875
 40
0.875
 40
0.875
 40
0.875
 40
1.0
 40
1.0
 40
1.0
 40
1.0
 10
-59.67780000000001
 20
-131.5205
 30
0.0
 10
-59.67780000000001
 20
-131.5205
 30
0.0
 10
-59.67780000000001
 20
-98.28400000000001
 30
0.0
 10
-59.67780000000001
 20
-98.28400000000001
 30
0.0
 10
-59.67780000000001
 20
-98.28400000000001
 30
0.0
 10
-59.67780000000001
 20
-98.28400000000001
 30
0.0
 10
-70.62950000000001
 20
-98.28400000000001
 30
0.0
 10
-70.62950000000001
 20
-98.28400000000001
 30
0.0
 10
-70.62950000000001
 20
-98.28400000000001
 30
0.0
 10
-70.62950000000001
 20
-98.28400000000001
 30
0.0
 10
-70.62950000000001
 20
-184.3788
 30
0.0
 10
-70.62950000000001
 20
-184.3788
 30
0.0
 10
-70.62950000000001
 20
-184.3788
 30
0.0
 10
-70.62950000000001
 20
-184.3788
 30
0.0
 10
-70.56110000000001
 20
-184.3788
 30
0.0
 10
-70.56110000000001
 20
-184.3788
 30
0.0
 10
-70.56110000000001
 20
-184.3788
 30
0.0
 10
-70.56110000000001
 20
-184.3788
 30
0.0
 10
-70.56110000000001
 20
-192.6186
 30
0.0
 10
-70.56110000000001
 20
-192.6186
 30
0.0
 10
-70.56110000000001
 20
-192.6186
 30
0.0
 10
-70.56110000000001
 20
-192.6186
 30
0.0
 10
-54.35140000000001
 20
-192.6186
 30
0.0
 10
-54.35140000000001
 20
-192.6186
 30
0.0
 10
-54.35140000000001
 20
-192.6186
 30
0.0
 10
-54.35140000000001
 20
-192.6186
 30
0.0
 10
-20.7287
 20
-131.5996
 30
0.0
 10
-20.7287
 20
-131.5996
 30
0.0
 10
-20.7287
 20
-131.5996
 30
0.0
 10
-19.5342
 20
-131.5996
 30
0.0
 10
-48.6725
 20
-131.5205
 30
0.0
 10
-59.67780000000001
 20
-131.5205
 30
0.0
  0
SPLINE
  5
5F
330
1F
100
AcDbEntity
  8
EBENE_1
100
AcDbSpline
210
0.0
220
0.0
230
1.0
 70
    11
 71
     3
 72
    36
 73
    32
 74
     0
 42
0.0000000001
 43
0.0000000001
 40
0.0
 40
0.0
 40
0.0
 40
0.0
 40
0.125
 40
0.125
 40
0.125
 40
0.125
 40
0.25
 40
0.25
 40
0.25
 40
0.25
 40
0.375
 40
0.375
 40
0.375
 40
0.375
 40
0.5
 40
0.5
 40
0.5
 40
0.5
 40
0.625
 40
0.625
 40
0.625
 40
0.625
 40
0.75
 40
0.75
 40
0.75
 40
0.75
 40
0.875
 40
0.875
 40
0.875
 40
0.875
 40
1.0
 40
1.0
 40
1.0
 40
1.0
 10
-9.2494
 20
-131.5205
 30
0.0
 10
-9.2494
 20
-131.5205
 30
0.0
 10
-9.2494
 20
-98.28400000000001
 30
0.0
 10
-9.2494
 20
-98.28400000000001
 30
0.0
 10
-9.2494
 20
-98.28400000000001
 30
0.0
 10
-9.2494
 20
-98.28400000000001
 30
0.0
 10
-20.2011
 20
-98.28400000000001
 30
0.0
 10
-20.2011
 20
-98.28400000000001
 30
0.0
 10
-20.2011
 20
-98.28400000000001
 30
0.0
 10
-20.2011
 20
-98.28400000000001
 30
0.0
 10
-20.2011
 20
-184.3788
 30
0.0
 10
-20.2011
 20
-184.3788
 30
0.0
 10
-20.2011
 20
-184.3788
 30
0.0
 10
-20.2011
 20
-184.3788
 30
0.0
 10
-20.1327
 20
-184.3788
 30
0.0
 10
-20.1327
 20
-184.3788
 30
0.0
 10
-20.1327
 20
-184.3788
 30
0.0
 10
-20.1327
 20
-184.3788
 30
0.0
 10
-20.1327
 20
-192.6186
 30
0.0
 10
-20.1327
 20
-192.6186
 30
0.0
 10
-20.1327
 20
-192.6186
 30
0.0
 10
-20.1327
 20
-192.6186
 30
0.0
 10
-3.923
 20
-192.6186
 30
0.0
 10
-3.923
 20
-192.6186
 30
0.0
 10
-3.923
 20
-192.6186
 30
0.0
 10
-3.923
 20
-192.6186
 30
0.0
 10
29.6997
 20
-131.5996
 30
0.0
 10
29.6997
 20
-131.5996
 30
0.0
 10
29.6997
 20
-131.5996
 30
0.0
 10
30.8942
 20
-131.5996
 30
0.0
 10
1.7559
 20
-131.5205
 30
0.0
 10
-9.2494
 20
-131.5205
 30
0.0
  0
ENDSEC
  0
SECTION
  2
OBJECTS
  0
DICTIONARY
  5
C
330
0
100
AcDbDictionary
  3
ACAD_GROUP
350
D
  3
ACAD_LAYOUT
350
1A
  3
ACAD_MLINESTYLE
350
17
  3
ACAD_PLOTSETTINGS
350
19
1001
ACAD
1000
TREAT_AS_HARD
1070
     0
  0
DICTIONARY
  5
6C
330
29
100
AcDbDictionary
  3
ACAD_XREC_ROUNDTRIP
360
6D
  0
DICTIONARY
  5
D
102
{ACAD_REACTORS
330
C
102
}
330
C
100
AcDbDictionary
1001
ACAD
1000
TREAT_AS_HARD
1070
     0
  0
DICTIONARY
  5
1A
102
{ACAD_REACTORS
330
C
102
}
330
C
100
AcDbDictionary
1001
ACAD
1000
TREAT_AS_HARD
1070
     0
  0
DICTIONARY
  5
17
102
{ACAD_REACTORS
330
C
102
}
330
C
100
AcDbDictionary
  3
STANDARD
350
18
1001
ACAD
1000
TREAT_AS_HARD
1070
     0
  0
DICTIONARY
  5
19
102
{ACAD_REACTORS
330
C
102
}
330
C
100
AcDbDictionary
1001
ACAD
1000
TREAT_AS_HARD
1070
     0
  0
XRECORD
  5
6D
102
{ACAD_REACTORS
330
6C
102
}
330
6C
100
AcDbXrecord
102
UCS
 74
     0
 71
     1
 10
0.0
 20
0.0
 30
0.0
 10
1.0
 20
0.0
 30
0.0
 10
0.0
 20
1.0
 30
0.0
146
0.0
 79
     0
102
VIEW
281
     0
  0
MLINESTYLE
  5
18
102
{ACAD_REACTORS
330
17
102
}
330
17
100
AcDbMlineStyle
  2
Standard
 70
     0
  3

 62
   256
 51
90.0
 52
90.0
 71
     2
 49
0.5
 62
   256
  6
BYLAYER
 49
-0.5
 62
   256
  6
BYLAYER
  0
ENDSEC
  0
EOF
